Oops, an error
Loading. Please wait.

7Th Heaven Theme tab

version 2
version 2

Whole song

7,738 views 21 this week
3 commentsread comments
1 2 3 4 5
x 5
add to favorites
×
Save as Personal and add changes to this tab that will be seen only by you. Learn more ›
×
You can save this tab as Personal to edit and correct it or add notes. All changes will be seen only by you. Learn more »
launch autoscroll
font size
0
reset
how to read this tab
guitar tuner
edit
Autoscroll
slow
fast
+/-
esc
set tempo
stop
Author
Difficulty
I figured the best show ever deserves the best tab ever. Since there's no decent tab on 
world wide web, I thought I'd do it myself. 7th Heaven rocks!

Intro:

   G     C      G       D
----------------------------0--2---------------------|
---------------------------3-------------------------|
-----7-7-7--5-4-4h5-5-4-2-2--------------------------|
---5-------------------------------------------------|
-----------------------------------------------------|
-----------------------------------------------------|


         G                       C           G               D
Seventh heaven, when I see their happy faces smiling back at me
         G                        C                        G  
           D
Seventh heaven, I know there's no greater feeling that the love of a family
             Em  C           G                    D
Where do you gooooo when the world don't treat you right
              Em  C                G                     D
The answer is hooooome, that's the one place that you'll find
        G      C             G            D
Seventh heaven mmmm  seventh heaven

The lead guitar over the verse is the same as the intro;

----------------------------0--2---------------------|
---------------------------3-------------------------|
-----7-7-7--5-4-4h5-5-4-2-2--------------------------|
---5-------------------------------------------------|
-----------------------------------------------------|
-----------------------------------------------------|

----------------------------0--2---------------------|
---------------------------3-------------------------|
-----7-7-7--5-4-4h5-5-4-2-2--------------------------|
---5-------------------------------------------------|
-----------------------------------------------------|
-----------------------------------------------------|


And the outro is like this:

---------------------------------------------------|
---------------------------------------------------|
-----4-4h5-4-2-4-----------------------------------|
---5-----------------------------------------------|
---------------------------------------------------|
---------------------------------------------------|

            
            
Suggest correction
Creating personal tab
Creating personal tab
You can edit any tab online and save it as your Personal.

You can edit, replace or remove any tab part or add personal notes – all changes will be seen only by you.

Personal tabs can be accessed anytime from any device, even offline.
Learn more »
comments
print report bad tab
3 comments total.
+1 reply
ZwakZinnig 10 Sep 01, 2010 11:04 PM

Great tab! Finally someone who respects the show enough to put on a decent tab. Great work!

0 reply
dbqtanner1 50 Jun 26, 2014 08:16 PM

----------------------------0--2---------------------|
---------------------------3-------------------------|
-----7-7-7--5-4-4h5-5-4-2-2--------------------------|
---5-7-7-7--0-0 0 0 5-0 0 0--------------------------|
-----------------------------------------------------|
-----------------------------------------------------|

here try this

0 reply
dbqtanner1 50 Jun 26, 2014 08:19 PM

----------------------------0--2---------------------|
---------------------------3-------------------------|
-----7-7-7--5-4-4h5-5-4-2-2--------------------------|
---5-7-7-7--0-0 0 0 5-0 0 0--------------------------|
-----------------------------------------------------|
-----------------------------------------------------|

here try this

guest
You may want to rate the tab now too:
select rating
Wanna post a correction for this tab? Suggest correction