Oops, an error
Loading. Please wait.

Batman 1966 Theme tab

version 1
version 1

Whole song

  • This the theme from the 1966 TV show made by Neal Hefti.

Interactive

304 views 6 this week
2 commentsread comments
1 2 3 4 5
3 more votes to show rating
add to favorites
×
Save as Personal and add changes to this tab that will be seen only by you. Learn more ›
×
You can save this tab as Personal to edit and correct it or add notes. All changes will be seen only by you. Learn more »
launch autoscroll
font size
0
reset
how to read this tab
guitar tuner
edit
Autoscroll
slow
fast
+/-
esc
set tempo
stop
About this tab version
This the theme from the 1966 TV show made by Neal Hefti. Was this info helpful? Yes No
----------------------------------------------------------------------------------------------------
                                Batman - 1966  TV series Theme - Neal Hefti
----------------------------------------------------------------------------------------------------

Tempo : 157
E-mail: gwendal.mollo@orange.fr
Tabbed by: newg    (http://profile.ultimate-guitar.com/newg/)

Guitar II can play the chords (G#5, C#5 and D#5) with palm mute.
See more with my guitar pro/powertab 

[Intro]
e|--6--5--4--3--2--3--4--5--6--|
B|-----------------------------|
G|-----------------------------|
D|-----------------------------|
A|-----------------------------|
E|-----------------------------|
  
    G#5
e|----------------------------|
B|----------------------------|
G|----------------------------|
D|----------------------------|
A|--6--6--5--5--4--4--5--5----|
E|----------------------------| x7

[Verse]

 "Barman !!"
    G#5
e|----------------------------|
B|----------------------------|
G|----------------------------|
D|----------------------------|
A|--6--6--5--5--4--4--5--5----|
E|----------------------------| x4

   "Barman !!"
    C#5
e|----------------------------|
B|----------------------------|
G|----------------------------|
D|--6--6--5--5--4--4--5--5----|
A|----------------------------|
E|----------------------------| x2

 "Barman !!"
    G#5
e|----------------------------|
B|----------------------------|
G|----------------------------|
D|----------------------------|
A|--6--6--5--5--4--4--5--5----|
E|----------------------------| x2

   "Barman !!"                 "Barman !!"
    D#5                        C#5
e|--------------------------|----------------------------|
B|--------------------------|----------------------------|
G|--------------------------|----------------------------|
D|--8--8--7--7--6--6--7--8--|--6--6--5--5--4--4--5--6----|
A|--------------------------|----------------------------|
E|--------------------------|----------------------------|

 "Barman !!"
  G#5
e|----------------------------|
B|----------------------------|
G|----------------------------|
D|----------------------------|
A|--6--6--5--5--4--4--5--5----|
E|----------------------------| x2

   "Barman !!"                 "Barman !!"
    D#5                        C#5
e|--------------------------|----------------------------|
B|--------------------------|----------------------------|
G|--------------------------|----------------------------|
D|--8--8--7--7--6--6--7--8--|--6--6--5--5--4--4--5--6----|
A|--------------------------|----------------------------|
E|--------------------------|----------------------------|


  G#5
e|----------------------------|
B|----------------------------|
G|----------------------------|
D|----------------------------|
A|--6--6--5--5--4--4--5--5----|
E|----------------------------| x2

[Outro]

  G#5                             G#5
e|----------------------------|----------------------------|-------|
B|----------------------------|----------------------------|-------|
G|----------------------------|----------------------------|-------|
D|----------------------------|----------------------------|-------|
A|--6--6--5--5--4--4--5--5----|--6-----------6-----6L------|--6----|
E|----------------------------|----------------------------|-------|




            
            
Suggest correction
Creating personal tab
Creating personal tab
You can edit any tab online and save it as your Personal.

You can edit, replace or remove any tab part or add personal notes – all changes will be seen only by you.

Personal tabs can be accessed anytime from any device, even offline.
Learn more »
Give kudos to tab author, rate the tab!
1 2 3 4 5
comments
print report bad tab
2 comments total.
+1 reply
Austin lee 10 Nov 06, 2017 03:01 PM

I too enjoyed barman

+1 reply
newg [tm] 50,145 Nov 06, 2017 03:07 PM

didn't see that ;)

guest
You may want to rate the tab now too:
select rating
Wanna post a correction for this tab? Suggest correction