Oops, an error
Loading. Please wait.

Doctor Who - Dont tab

58 views 3 this week
no commentswrite comment
1 2 3 4 5
3 more votes to show rating
add to favorites
×
Save as Personal and add changes to this tab that will be seen only by you. Learn more ›
×
You can save this tab as Personal to edit and correct it or add notes. All changes will be seen only by you. Learn more »
launch autoscroll
font size
0
reset
how to read this tab
guitar tuner
edit
Autoscroll
slow
fast
+/-
esc
set tempo
stop
Author
Difficulty
intermediate
Guitar 1 Tuning: Standard (EADGBe)
Guitar 2 Tuning: Drop D (DADGBe)

Sheet music: https://www.jither.net/download/pdf/Don't%20(solo%20piano).pdf
Song + piano tutorial: https://www.youtube.com/watch?v=EzoLNo3SwQQ

(Guitar 1) 
(let all notes ring)
(0:05-0:41)
  C5   Bb   Ab6/9sus Absus2  Bb  Ab  Ab Ab Bbadd9 Bb  Bb  Cmadd9 Fm6  Fmadd9 Cm   Abadd9  Ab Fmadd9 Fm  Eb
e|-15-|-18-|---------------|----|-8-|-8-8-|-8-----10-|---|------|----|------|----|----------|----------|-3-|
B|-13-|-18-|-18---------16-|-15-|-9-|-9-9-|-11-------|---|------|----|------|----|-11-----9-|----------|-4-|
G|-12-|-19-|-15------------|-15-|-8-|-8-8-|-10-------|---|-8----|-10-|-0----|-0--|-8--------|-12----10-|-3-|
D|----|----|---------------|-15-|---|-----|----------|---|-0----|-12-|-10---|-10-|-10-------|-10-------|---|
A|----|----|---------------|----|---|-----|----------|---|------|-11-|-11---|----|----------|-11-------|---|
E|----|----|---------------|----|---|-----|----------|---|-8----|-8--|-13---|-11-|----------|----------|---|

(0:42-1:07)
  G   Fm6 Fm Ebsus2 Bb  Absus2 Eb   Gm Bb  Fsus2 Cm   Bb13 Abmaj7/9 Eb  Gm  Ab Gm Fm
e|-3-|-10-8-|-11----10-|-16----15-|-15-13-|-13---11-|-10---8-------|-6-|-6-|-8---|---------|
B|-3-|-9----|-11-------|-16-------|-15----|-13------|-11-----------|-8-|-8-|-9-8-|-6---4-6-|
G|-4-|-10---|-10-------|-15-------|-15----|-12------|-12-----------|-8-|-7-|-8-7-|-5-------|
D|---|------|----------|----------|-------|---------|--------------|---|---|---8-|-6-------|
A|---|------|----------|----------|-------|---------|--------------|---|---|-----|---------|
E|---|------|----------|----------|-------|---------|-------======-|---|---|-----|---------|

(1:08-1:45)
  Cmadd11           Cmadd11           Cm7/11            Abmaj7/13         Cm7/11           Cmadd11
e|-3---------------|-----------------|-----------------|-----------------|-----------------|-----------------|
B|-----------------|-----------------|-----------------|-----------------|-----------------|-----------------|
G|-------0-------0-|-------0-------0-|-------0-------0-|-------0-------0-|-------0-------0-|-------0-------0-|
D|---1-3-----1-3---|---1-3-----1-3---|---1-3-----1-3---|---1-3-----1-3---|---1-3-----1-3---|---1-3-----1-3---|
A|-3-------3-------|-3-------3-------|-3-------3-------|-3-------3-------|-3-------3-------|-3-------3-------|
E|-----------------|-----------------|-----------------|-----------------|-----------------|-----------------|

  Cmadd11           Cm7/11            Abmaj7/13   Cm7/11 Cmadd11          Cmadd11           Cm7/11
e|-----------------|-----------------|-----------------|-----------------|-----------------|-----------------|
B|-----------------|-----------------|-----------------|-----------------|-----------------|-----------------|
G|-------0-------0-|-------0-------0-|-------0-------0-|-------0-------0-|-------0-------0-|-------0-------0-|
D|---1-3-----1-3---|---1-3-----1-3---|---1-3-----1-3---|---1-3-----1-3---|---1-3-----1-3---|---1-3-----1-3---|
A|-3-------3-------|-3-------3-------|-3-------3-------|-3-------3-------|-3-------3-------|-3-------3-------|
E|-----------------|-----------------|-----------------|-----------------|-----------------|-----------------|

  Abmaj7/13
e|-----------------|---|---|
B|-----------------|---|---|
G|-------0-------0-|---|---|
D|---1-3-----1-3---|---|---|
A|-3-------3-------|-3-|---|
E|-----------------|---|---|

(Guitar 2) 
(let all notes ring)
(0:05-0:43)
  C5  Bb  Ab6/9sus Absus2 Bb  Ab  Ab Ab Bbadd9 Bb Bb  Cmadd9 Fm6 Fmadd9 Cm  Abadd9 Ab Fmadd9 Fm Eb  G
e|---|---|---------------|---|---|-----|---------|---|------|---|------|---|---------|---------|---|---|
B|---|---|---------------|---|---|-----|---------|---|------|---|------|---|---------|---------|---|---|
G|-0-|---|---------------|---|---|-----|---------|---|------|---|------|---|---------|---------|---|---|
D|---|-3-|-6-------------|-3-|-1-|-1-1-|-0-------|---|------|---|------|---|---------|---------|---|---|
A|---|---|---------------|---|---|-----|---------|---|-3----|---|------|-3-|---------|---------|---|---|
D|-5-|-3-|-6-------------|-3-|-1-|-1-1-|-0-------|---|------|-6-|-3----|---|-6-------|-3-------|-1-|-5-|

(0:44-1:07)
  Fm6 Fm Ebsus2 Bb Absus2 Eb Gm Bb Fsus2 Cm Bb13 Abmaj7/9 Eb  Gm  Ab Gm Fm
e|------|---------|---------|-----|--------|-------------|---|---|-----|---|
B|------|---------|---------|-----|--------|-------------|---|---|-----|---|
G|------|---------|---------|-----|--------|-------------|---|---|-----|---|
D|------|---------|---------|-----|--------|-------------|---|---|-----|---|
A|------|-1-------|---------|-----|-3------|-------------|---|---|-----|---|
D|-6----|---------|-1-------|-0---|--------|-6-----------|-1-|-0-|-6-5-|-3-|

(1:08-1:45)
  Cmadd11     Cm7/11 Abmaj7/13 Cm7/11 Cmadd11     Cm7/11 Abmaj7/13 Cm7/11 Cmadd11     Cm7/11 Abmaj7/13
e|-------|---|------|---------|------|-------|---|------|----------------|-------|---|------|---------|----|-|
B|-------|---|------|---------|------|-------|---|------|----------------|-------|---|------|---------|----|-|
G|-------|---|------|---------|------|-------|---|------|----------------|-------|---|------|---------|----|-|
D|-------|---|------|---------|------|-------|---|------|----------------|-------|---|------|---------|----|-|
A|-------|---|------|---------|------|-------|---|------|----------------|-------|---|------|---------|----|-|
D|-10----|---|-8----|-6-------|-8----|-10----|---|-8----|-6----------8---|-10----|---|-8----|-6-------|-10-|-|

            
            
Suggest correction
Creating personal tab
Creating personal tab
You can edit any tab online and save it as your Personal.

You can edit, replace or remove any tab part or add personal notes – all changes will be seen only by you.

Personal tabs can be accessed anytime from any device, even offline.
Learn more »
Give kudos to tab author, rate the tab!
1 2 3 4 5
comments
print report bad tab
guest
You may want to rate the tab now too:
select rating
Wanna post a correction for this tab? Suggest correction