Oops, an error
Loading. Please wait.

Family Guy Theme tab

version 3
version 3
9,483 views 21 this week
14 commentsread comments
1 2 3 4 5
x 5
add to favorites
×
Save as Personal and add changes to this tab that will be seen only by you. Learn more ›
×
You can save this tab as Personal to edit and correct it or add notes. All changes will be seen only by you. Learn more »
launch autoscroll
font size
0
reset
how to read this tab
guitar tuner
edit
Autoscroll
slow
fast
+/-
esc
set tempo
stop
Author
Difficulty
intermediate
there all fixed now the tab should be flawless

i heard this song on "family guy" awhile back, it's hilarious, originally done by the B-52's
but i think Peter Griffin does a better job....

intro:
|----------------|----------------|x2
|----------------|----------------|
|----------------|----------------|
|----------------|----------------|
|----------------|---3-0-3-2------|
|0---0---0---3-3-|----------------|

verse/main riff
|----------------|----------------|
|----------------|----------------|
|----------------|----------------|x5
|----------------|----------------|
|----------------|---3-0-3-2------|
|0---0---0---3-3-|----------------|

We were down at the beach,(main riff x1)
Everybody had matching towels,(main riff x1)
Somebody went under the dock,(main riff xl)
Where they saw a rock,(main riff x1)
But it wasn't a rock,(main riff x1)
It was a rock lobster!(main riff x1)

Outtro:
|----------------|-------------------|
|----------------|-------------------|
|----------------|-------------------|  Rock Lobster!
|----------------|-------------------|
|--2-2-2-5-5-5-5-|10-10-10-10-9-9-9-9|
|0-0-0-0-3-3-3-3-|8--8--8--8--7-7-7-7|

|----------------|-------------------|
|----------------|-------------------|
|----------------|-------------------|  Rock Lobster!
|----------------|-------------------|
|--2-2-2-5-5-5-5-|10-10-10-10-9-9-9-9|
|0-0-0-0-3-3-3-3-|8--8--8--8--7-7-7-7|x2

|----------------|
|----------------|
|----------------|
|----------------|
|-----~7~--------|
|-----~9~--------| end on this chord and throw in a vibrato....

            
            
Suggest correction
Creating personal tab
Creating personal tab
You can edit any tab online and save it as your Personal.

You can edit, replace or remove any tab part or add personal notes – all changes will be seen only by you.

Personal tabs can be accessed anytime from any device, even offline.
Learn more »
comments
print report bad tab
14 comments total. Showing first comments.
0 reply
kingham03 10 Apr 07, 2007 12:37 AM

i have heard the song and i think this is a little off but in the show i agree peter does it so well!

0 reply
lenjosky101 16 Apr 24, 2007 01:40 PM

it is actually quite good except for the part in the main riff it should be ......33 insted of 22

0 reply
lenjosky101 16 Apr 24, 2007 01:41 PM

check my tab out i did the same song just, i did it right lol

guest
You may want to rate the tab now too:
select rating
Wanna post a correction for this tab? Suggest correction