Oops, an error
Loading. Please wait.

Family Guy Theme ukulele

version 2
version 2

Whole song

Interactive

970 views 12 this week
no commentswrite comment
1 2 3 4 5
x 3
add to favorites
×
Save as Personal and add changes to this tab that will be seen only by you. Learn more ›
×
You can save this tab as Personal to edit and correct it or add notes. All changes will be seen only by you. Learn more »
launch autoscroll
font size
0
reset
transpose
0
reset
display chords
guitar tuner
edit
Autoscroll
slow
fast
+/-
esc
set tempo
stop
Author
Difficulty
Strumming
There is no strumming pattern for this song yet. and get +5 IQ
-------------------------------------------------
        Family Guy Theme - Misc T.V.
-------------------------------------------------
Tabbed by: tikihead
E-mail: smart.youtuber@yahoo.com

Hey, you awesome person. I love this show and realized there was no uke tab,
so I took a bit of time and did it. Hope you like it!

Tuning: Standard GCEA

It seems today,that all you see, is violence and movies,and sex on T.V., but
where are those good ol' fashion values, on which we used to rely!
A|---3-2-3---2-1-2---1-0-1-0-1-3-1-0-0-0-0-------------0-0-1-0---0-5-0-----3-|
E|---------1-------1-----------------------1-3-3-1-4-1---------3-------3-1---|
C|-0-------------------------------------------------------------------------|
G|---------------------------------------------------------------------------|

Lucky there's a family guy! Lucky there's a man who, positively can do, all 
the things that make us, laugh and cry!
A|-5-5-5-5-8-5-5-3-1-1-1-1-1-3-0-0-0-0-0-1-----------0--0-5-------------------|
E|-----------------------------------------3-3-3-3-3--1-----------------------|
C|---------------------------------------------------------------------------|
G|---------------------------------------------------------------------------|
  
He's a family guy!     *Outro*
A|-3-3-5-7-8--------------3-0-3-5-3-5-8--------------------------------------|
E|--------------------------------------1------------------------------------|
C|---------------------------------------------------------------------------|
G|---------------------------------------------------------------------------|


************************************

| /   slide up
| \   slide down
| h   hammer-on
| p   pull-off
| ~   vibrato
| +   harmonic
| x   Mute note
| b   Bend
| pb  Pre-bend
| br  Bend release
| pbr Pre-bend release
| brb Bend release bend

************************************

            
            
Suggest correction
Creating personal tab
Creating personal tab
You can edit any tab online and save it as your Personal.

You can edit, replace or remove any tab part or add personal notes – all changes will be seen only by you.

Personal tabs can be accessed anytime from any device, even offline.
Learn more »
Give kudos to tab author, rate the tab!
1 2 3 4 5
comments
print report bad tab
guest
You may want to rate the tab now too:
select rating
Wanna post a correction for this tab? Suggest correction