Oops, an error
Loading. Please wait.

Fat Dog Mandoza Theme intro tab

490 views 1 this week
1 commentread comment
1 2 3 4 5
3 more votes to show rating
add to favorites
×
Save as Personal and add changes to this tab that will be seen only by you. Learn more ›
×
You can save this tab as Personal to edit and correct it or add notes. All changes will be seen only by you. Learn more »
launch autoscroll
font size
0
reset
how to read this tab
guitar tuner
edit
Autoscroll
slow
fast
+/-
esc
set tempo
stop
Author
Difficulty
e|-------------------------------------------------------|
B|-------------------------------------------------------|
G|-------------------------------------------------------|
D|-------------------------------------------------------|
A|-------------------------------------------------------|
E|--0-0-2-0-3-5---0-0-2-3-2---0-0-2-0-3-5---7-6-5-3-2--0-|

The song is very easy, im gonna complete the song once i get the time. Till then bye

            
            
Suggest correction
Creating personal tab
Creating personal tab
You can edit any tab online and save it as your Personal.

You can edit, replace or remove any tab part or add personal notes – all changes will be seen only by you.

Personal tabs can be accessed anytime from any device, even offline.
Learn more »
Give kudos to tab author, rate the tab!
1 2 3 4 5
comments
print report bad tab
1 comment total.
0 reply
petkovski 1,134 Oct 08, 2017 03:57 PM

Also try this:

e|------------------------------------------------------------------------------|
B|------------------------------------------------------------------------------|
G|----------------------12--15--------------12----------------------------------|
D|--13--13--15--13--13----------13--13--13------15--13--12--------------12--13--|
A|----------------------------------------------------------15--13--15----------|
E|------------------------------------------------------------------------------|

guest
You may want to rate the tab now too:
select rating
Wanna post a correction for this tab? Suggest correction