Oops, an error
Loading. Please wait.

Friends Theme chords

version 2
version 2

Whole song

157,231 views 1,170 this week
4 commentsread comments
1 2 3 4 5
x 33
add to favorites
×
Save as Personal and add changes to this tab that will be seen only by you. Learn more ›
×
You can save this tab as Personal to edit and correct it or add notes. All changes will be seen only by you. Learn more »
launch autoscroll
font size
0
reset
transpose
0
reset
display chords
guitar tuner
edit
Autoscroll
slow
fast
+/-
esc
set tempo
stop
Strumming
There is no strumming pattern for this song yet. and get +5 IQ
----------------------------------------------------------------------------
                             Friends Theme Song - (The Rembrandts)
----------------------------------------------------------------------------

Tabbed by: loub25

This is my first tab, so I hope you like it as it's from my favourite TV show of 
all time- Friends!

Tuning: Standard (EADGBe)

Chords used...

     E A D G B e
A|   X 0 2 2 2 0
G|   3 2 0 0 3 3
C#m| 4 4 6 6 5 4
Bm|  2 2 4 4 3 2
D|   X X 0 2 3 2
E|   0 2 2 1 0 0

[Intro]

e|-------------------------------------------------|
B|-------------------------------------------------|
G|---2/6--6--4--2--0--0--2--4--2-------------------|
D|-------------------------------------------------| x2
A|-------------------------------------------------|
E|-------------------------------------------------|


[Verse]

A                                          G
So no one told you life was gonna be this way
A                                                      C#m
Your job's a joke you're broke your love life's D.O.A.
G               Bm               A
It's like you're always stuck in second gear
        G               D                     E
When it hasn't been your day, your week, your month, or even your year


[Chorus]

   A         D           E
But, I'll be there for you (When the rain starts to pour)
A       D           E
I'll be there for you (Like I've been there before)
A       D           E                             G
I'll be there for you ('Cause you're there for me too)


e|--------------------------------0---|
B|-----------------3--2--0--0-----3---|
G|---2/6--6--4--2--------------2--3---|
D|--------------------------------3---|
A|--------------------------------0---|
E|------------------------------------|

            
            
Suggest correction
Creating personal tab
Creating personal tab
You can edit any tab online and save it as your Personal.

You can edit, replace or remove any tab part or add personal notes – all changes will be seen only by you.

Personal tabs can be accessed anytime from any device, even offline.
Learn more »
comments
print report bad tab
4 comments total. Showing first comments.
+5 reply
chckndmplngs 504 Mar 29, 2012 08:10 PM

Good tab, but the A chord is x02220, not x03330

+7 reply
Ephesus00 10 Jun 01, 2014 09:10 AM

If you use a variation of the A chord, its easier than using the riff.

e|-----------------------------------|
B|------2-2p0------------------------|
G|-----------2-0-0-2s4s2-------------|
D|-----------------------------------|
A|---0-------------------------------|
E|-----------------------------------|

p=hammer on
s=slide

0 reply
joebulmer 10 Dec 31, 2014 09:56 AM

E|---------------------------------|
B|---------------------------------|
G|-------6-4-2-0-0-2-4-2-----------|
D|---------------------------------|
A|---------------------------------|
E|---0-----------------------------|

guest
Wanna post a correction for this tab? Suggest correction