Oops, an error
Loading. Please wait.

Game Of Thrones Theme tab

version 11
version 11

Whole song

787 views 15 this week
no commentswrite comment
1 2 3 4 5
3 more votes to show rating
add to favorites
×
Save as Personal and add changes to this tab that will be seen only by you. Learn more ›
×
You can save this tab as Personal to edit and correct it or add notes. All changes will be seen only by you. Learn more »
launch autoscroll
font size
0
reset
how to read this tab
guitar tuner
edit
Autoscroll
slow
fast
+/-
esc
set tempo
stop
About this tab version
This is a "Break of Reality Version", you can check out on youtube. Was this info helpful? Yes No
[Part 1]
E|-0------0-----0-----0-----0-----0-----0-----0------------|
B|-1---1p3---1p3---1p3---2p3---2p3---2p3---2p3-------------|
E|-2--2-----2-----2-----2-----2-----2-----2----------------|
D|-2-------------------------------------------------------|
A|---------------------------------------------------------|
E|---------------------------------------------------------|

[Part 2]
E|-12--5--0-8h10p12--5--0-8h10/7-------7-----7-----7-----7-|
B|-----5-------------5-------------8p10--8p10--8p10--8p10--|
E|-9---5-------------5------------9-----9-----9-----9------|
D|---------------------------------------------------------|
A|-0-------------------------------------------------------|
E|---------------------------------------------------------|

E|-10------7h8h10---7h8/5-----5----5----5----5-------------|
B|-0---8----------8--------6p8--6p8--6p8--6p8--------------|
E|-----0------------------7----7----7----7-----------------|
D|---------------------------------------------------------|
A|-10----10------------------------------------------------|
E|---------------------------------------------------------|

[Part 3]
E|-12--5--0-8h10812--5--0-8h10/7-------7-----7-----7-----7-|
B|-----5-------------5-------------8p10--8p10--8p10--8p10--|
E|-9---5-------------5------------9-----9-----9-----9------|
D|---------------------------------------------------------|
A|-0-------------------------------------------------------|
E|---------------------------------------------------------|

E|-10------7-8-7----5-------5----5----5----5---------------|
B|-0---8---------8-------6p8--6p8--6p8--6p8----------------|
E|-----0----------------7----7----7----7-------------------|
D|------------------0--------------------------------------|
A|-10----10------------------------------------------------|
E|---------------------------------------------------------|

[Part 4]
(In this part you should play: Up, Down, Up, Down, twice each chords,
It has to be at a good speed. In the original video you can follow the rhythm.
In A3 and B6, you can play fast once, and in the last chord  'Am', you should play 4x.)

  F7(9)| C |Dm |   Am    | F/C |A3 |B6 | Am 
E|-5---|-3-|-1-|-0-0-0-0-|--0--|-0-|-0-|-0-----------------|
B|-1---|-1-|-3-|-1-3-1-0-|--1--|-1-|-0-|-1-----------------|
E|-2---|-0-|-2-|-2-2-2-2-|--2--|-2-|-1-|-2-----------------| (2x)
D|-1---|-2-|-0-|-2-2-2-2-|--3--|-0-|-0-|-2-----------------|
A|-3---|-3-|-0-|-0-0-0-0-|--3--|-0-|-2-|-0-----------------|
E|-1---|-0-|-0-|-0-0-0-0-|--0--|-0-|-0-|-0-----------------|

[Part 5]
(Here, you should only play 'Down' and when varying the Am, Down 2x and Up 2x,
In C and B6, you should play the same rhythm as 'Part 4')

                       |    Am (3x)   | C |B6 |
E|-----0----0----0-----|-0-0-0-0000-0-|-0-|-0-|------------|
B|--1p3--1p3--1p3--1p3-|-1-1-1-3333p1-|-1-|-0-|------------|
E|-2----2----2----2----|-2-2-2-2222-2-|-0-|-1-|------------|
D|---------------------|-2-2-2-2222-2-|-2-|-0-|------------|
A|---------------------|-0-0-0-0000-0-|-3-|-2-|------------|
E|---------------------|-0-0-0-0000-0-|-0-|-0-|------------|

(Continuation of 'Part 5', same rhythm. Dm: Down 2X, Up 2X.)
        Am       |     Dm       |    Am        | C |B6 |
E|--0-0-0-0000-0-|-1-1-1-3333p1-|-0-0-0-0000-0-|-0-|-0-|---|
B|--1-1-1-3333p1-|-3-3-3-3333-3-|-1-1-1-3333p1-|-1-|-0-|---|
E|--2-2-2-2222-2-|-2-2-2-2222-2-|-2-2-2-2222-2-|-0-|-1-|---|
D|--2-2-2-2222-2-|-0-0-0-0000-0-|-2-2-2-2222-2-|-2-|-0-|---|
A|--0-0-0-0000-0-|-0-0-0-0000-0-|-0-0-0-0000-0-|-3-|-2-|---|
E|--0-0-0-0000-0-|-0-0-0-0000-0-|-0-0-0-0000-0-|-0-|-0-|---|

[Part 6]   
E|-12--5--0-8h10p12--5--0-8h10/7--8-10---------------------|
B|-----5-------------5-------------------------------------|
E|-9---5-------------5-------------------------------------|
D|---------------------------------------------------------|
A|-0-------------------------------------------------------|
E|---------------------------------------------------------|

(Continuation of 'Part 6')
E|-12--5--0-8h10p12--5--0-8h10/7--5-4----------------------|
B|-----5-------------5-------------------------------------|
E|-9---5-------------5-------------------------------------|
D|---------------------------------------------------------|
A|-0-------------------------------------------------------|
E|---------------------------------------------------------|

[Part 7]
E|---------------------------------------------------------|
B|-10--13--8-10-8-5--8-10--8-5-2-1-------------------------|
E|---------------------------------------------------------|
D|---------------------------------------------------------|
A|---------------------------------------------------------|
E|---------------------------------------------------------|

(Continuation of 'Part 7')
E|---------------------------------------------------------|
B|---------------------------------------------------------|
E|-2--2-4-5-9-7-5-2--2-4-5-9-7-5-0--2--4--5----------------|
D|---------------------------------------------------------|
A|---------------------------------------------------------|
E|---------------------------------------------------------|

[Part 8]
E|-----0-----0-----0---------------------------------------|
B|--1p3---1p3---1p3---1p3----------------------------------|
E|-2-----2-----2-----2-------------------------------------|
D|---------------------------------------------------------|
A|---------------------------------------------------------|
E|---------------------------------------------------------|

[Part 9]
E|-12--5--0-8h10p12--5--0-8h10/7-------7-----7-----7-----7-|
B|-----5-------------5-------------8p10--8p10--8p10--8p10--|
E|-9---5-------------5------------9-----9-----9-----9------|
D|---------------------------------------------------------|
A|-0-------------------------------------------------------|
E|---------------------------------------------------------|

E|-10------7h8h10---7h8/5-----5----5----5----5-------------|
B|-0---8----------8--------6p8--6p8--6p8--6p8--------------|
E|-----0------------------7----7----7----7-----------------|
D|---------------------------------------------------------|
A|-10----10------------------------------------------------|
E|---------------------------------------------------------|

[Part 10]
E|-12--5--0-8h10812--5--0-8h10/7-------7-----7-----7-----7-|
B|-----5-------------5-------------8p10--8p10--8p10--8p10--|
E|-9---5-------------5------------9-----9-----9-----9------|
D|---------------------------------------------------------|
A|-0-------------------------------------------------------|
E|---------------------------------------------------------|

E|-10------7-8-7----5-------5----5----5----5---------------|
B|-0---8---------8-------6p8--6p8--6p8--6p8----------------|
E|-----0----------------7----7----7----7-------------------|
D|------------------0--------------------------------------|
A|-10----10------------------------------------------------|
E|---------------------------------------------------------|

[Part 11 - Last Part]
(In this last part, you can play more calmly)
E|-----0-----0-----0---------------------------------------|
B|--1p3---1p3---1p3---1p3----------------------------------|
E|-2-----2-----2-----2-------------------------------------|
D|---------------------------------------------------------|
A|---------------------------------------------------------|
E|---------------------------------------------------------|

************************************

| p  Pull-off
| h  Hammer-on
| /  Slide

************************************

            
            
Suggest correction
Creating personal tab
Creating personal tab
You can edit any tab online and save it as your Personal.

You can edit, replace or remove any tab part or add personal notes – all changes will be seen only by you.

Personal tabs can be accessed anytime from any device, even offline.
Learn more »
Give kudos to tab author, rate the tab!
1 2 3 4 5
comments
print report bad tab
guest
You may want to rate the tab now too:
select rating
Wanna post a correction for this tab? Suggest correction