Oops, an error
Loading. Please wait.

Happy Days Theme bass

974 views 12 this week
no commentswrite comment
1 2 3 4 5
1 last vote to show rating
add to favorites
×
Save as Personal and add changes to this tab that will be seen only by you. Learn more ›
×
You can save this tab as Personal to edit and correct it or add notes. All changes will be seen only by you. Learn more »
launch autoscroll
font size
0
reset
guitar tuner
edit
Autoscroll
slow
fast
+/-
esc
set tempo
stop
Author
Difficulty
HAPPY DAYS THEME
https://www.youtube.com/watch?v=u6zl5x8r9Bs
(tabbed by Jeroen82)
(tuning: standard EADG)

Sunday, Monday, happy days...
G|----|----|----|----|----|----|
D|----|----|----|----|----|----|
A|----|-5~-|----|-3~-|----|-5~-|
E|-1~-|----|-3~-|----|-5~-|----|

The weekend comes...
G|-----|-----|-----|-----------|
D|-----|-----|-----|-----------|
A|-1-3-|-1-3-|-3-3-|-3-3-1-0---|
E|-----|-----|-----|---------3-|

These days are ours...
G|-------|-------|--------|--------|
D|---3-2-|-0-0---|--------|--------|
A|-------|-----3-|-1-1--1-|-3-3--3-| x2
E|-1-----|-------|--------|--------|

Goodbye grey sky, hello blue...
G|----|----|----|---------|
D|----|----|----|---------|
A|----|----|-1x-|---------|
E|-1x-|-1x-|----|---6-5-4-|

Feels so right, it can't be wrong...
G|----|----|-----|-----------|
D|----|----|-----|-----------|
A|----|----|-3-3-|-3-3-1-0---|
E|-3x-|-3x-|-----|---------3-|

*INSTRUMENTAL*
G|-------|-------|--------|--------|
D|---3-2-|-0-0---|--------|--------|
A|-------|-----3-|-1-1--1-|-3-3--3-| x2
E|-1-----|-------|--------|--------|

Sunday, Monday, happy days...
G|----|----|----|----|----|----|
D|----|----|----|----|----|----|
A|----|-5~-|----|-3~-|----|-5~-|
E|-1~-|----|-3~-|----|-5~-|----|

Saturday, what a day...
G|-----|-----|-----|-----------|
D|-----|-----|-----|-----------|
A|-1-3-|-1-3-|-3-3-|-3-3-1-0---|
E|-----|-----|-----|---------3-|

These days are ours...
G|-------|-------|--------|--------|
D|---3-2-|-0-0---|--------|--------|
A|-------|-----3-|-1-1--1-|-3-3--3-| x3
E|-1-----|-------|--------|--------|

...My happy days
G|-----|-----|
D|-----|-----|
A|-1---|-3---|
E|---3-|---1-|

            
            
Suggest correction
Creating personal tab
Creating personal tab
You can edit any tab online and save it as your Personal.

You can edit, replace or remove any tab part or add personal notes – all changes will be seen only by you.

Personal tabs can be accessed anytime from any device, even offline.
Learn more »
Give kudos to tab author, rate the tab!
1 2 3 4 5
comments
print report bad tab
guest
You may want to rate the tab now too:
select rating
Wanna post a correction for this tab? Suggest correction