Oops, an error
Loading. Please wait.

House Md Theme tab

22,579 views 84 this week
6 commentsread comments
1 2 3 4 5
x 19
add to favorites
×
Save as Personal and add changes to this tab that will be seen only by you. Learn more ›
×
You can save this tab as Personal to edit and correct it or add notes. All changes will be seen only by you. Learn more »
launch autoscroll
font size
0
reset
how to read this tab
guitar tuner
edit
Autoscroll
slow
fast
+/-
esc
set tempo
stop
Author
E|-----0---------0-|-----0---------0-|-----0---------0-|
B|---------3---3---|---------3---3---|---------3---3---|
G|---2---2---2-----|---2---2---2-----|---2---2---2-----|
D|-----------------|-----------------|-----------------|
A|-0---------------|-0---------------|-0---------------|
D|-----------------|-----------------|-----------------| x2



E|-----0---------0-|-----0---------0-|-----0---------0-|
B|---------3---3---|---------3---3---|---------3---3---|
G|---2---2---2-----|---2---2---2-----|---2---2---2-----|
D|-----------------|-----------------|-----------------|
A|-0---------------|-----------------|-----------------|
D|-----------------|-5---------------|-0---------------| x2

            
            
Suggest correction
Creating personal tab
Creating personal tab
You can edit any tab online and save it as your Personal.

You can edit, replace or remove any tab part or add personal notes – all changes will be seen only by you.

Personal tabs can be accessed anytime from any device, even offline.
Learn more »
comments
print report bad tab
6 comments total. Showing first comments.
+2 reply
CarthageForever 40 Jun 06, 2009 05:59 PM

One of my favorite shows, now I can play this while watching.

Thanks.

0 reply
Aryaan 52 Jan 14, 2010 04:04 AM

I JUST LOVE HOUSE MD, and it is 100 percent correct, good job man!

0 reply
lamsi 10 May 14, 2010 08:49 AM

ohhh, thaks.

Yeahh, House, M.D is my fovourite series ;p ;)

guest
You may want to rate the tab now too:
select rating
Wanna post a correction for this tab? Suggest correction