Oops, an error
Loading. Please wait.

Jeopardy Theme tab

version 9
3,940 views 9 this week
3 commentsread comments
1 2 3 4 5
x 7
add to favorites
×
Save as Personal and add changes to this tab that will be seen only by you. Learn more ›
×
You can save this tab as Personal to edit and correct it or add notes. All changes will be seen only by you. Learn more »
launch autoscroll
font size
0
reset
how to read this tab
guitar tuner
edit
Autoscroll
slow
fast
+/-
esc
set tempo
stop
Author
Difficulty
Tabbers playing skills
intermediate
intermediate
-----------------------------------------------------------------------------
                             Jeopardy Theme
-----------------------------------------------------------------------------
Tabbed by: Guyismylastname

This is the main melody of the jeopardy theme with the bass notes.
Took me a long time to figure out (I'm a noob) and I think it's pretty 
accurate. However, the final note in the song is an Eb so unless you tune
your E string down, or have an electric with a whammy bar, it's fairly 
impossible to play.. so I just put in the next lowest Eb.


|-------------------------------------------------------------------|
|-----1-------------1-----------1-----1--5----3-1-0-----------------|
|--0-----0-------0-----0-----0-----0----------------2-0-------------|
|--------0-------3-----5-----------------0--------------------------|
|--3--------3-3--------------3-----0--------------------------------|
|-----------------------------------------------3-------------------|


|-------------------------------------------------------------------|
|-----1-------------1---------1-------------------------------------|
|--0-----0-------0-----0h2--------2-0-------------------------------|
|-----------2-3--0--------------------3-2-0-------------------------|
|--3-----0--------------------3---0---------3-----------------------|
|-----------------------------------3-1-0---------------------------|




|----------------------------------------3----1---------------------|
|-----4-------------4-----------4-----4---------4-3-1---------------|
|--3-----3-------3-----3-----3-----3------------------3-------------|
|--1--------1-1--3-----------------------3--------------------------|
|--------3-------------1-----------3------------1-------------------|
|----------------------------3--------------------------------------|


|-------------------------------------------------------------------|
|-----4-------------4---------4-------------------------------------|
|--3-----3--0-1--3-----3----------5-3-------------------------------|
|--1-------------3---------------------6---5---3--1-----1-----------|
|--------3-------------1------6---3-1----------------1--------------|
|--------------------------------------4---3---1--------------------|

            
            
Suggest correction
Creating personal tab
Creating personal tab
You can edit any tab online and save it as your Personal.

You can edit, replace or remove any tab part or add personal notes – all changes will be seen only by you.

Personal tabs can be accessed anytime from any device, even offline.
Learn more »
comments
print report bad tab
3 comments total.
+1 reply
SimonRap 39 May 17, 2014 01:22 PM

It's perfect :D

+1 reply
derek.watson.95 10 Oct 04, 2014 04:55 PM

Beaut' Love it Too bad im not that good at guitar ;_;

+1 reply
selena03 66 Aug 26, 2017 09:48 PM

this is so good!

guest
You may want to rate the tab now too:
select rating
Wanna post a correction for this tab? Suggest correction