Oops, an error
Loading. Please wait.

Mordecai And The Rigbys Sean Szeles - Party Tonight tab

13,750 views 33 this week
1 commentread comment
1 2 3 4 5
x 9
add to favorites
×
Save as Personal and add changes to this tab that will be seen only by you. Learn more ›
×
You can save this tab as Personal to edit and correct it or add notes. All changes will be seen only by you. Learn more »
launch autoscroll
font size
0
reset
how to read this tab
guitar tuner
edit
Autoscroll
slow
fast
+/-
esc
set tempo
stop
Author
Difficulty
*note* There are two versions of this song. One by mordecai and the rigbys which had a 
shorter version of the song for the music video and show
and one by Sean Szeles, a story-boarder for regular show. He wrote the song for the 
show. This is the Sean Szeles version, it's a little longer, is a little more difficult, and 
has a less abrupt ending.


e|--------------------------------------------------------------------------|
B|--------------------------------------------------------------------------|
G|-7-------7--7--7-------7--5-----5-----------------------------------------|
D|-7-------7--7--7-------------7-----7--5--7--5-----------------------------|
A|-5-------5--5--5-------------------------------8--7--5--7-----------------|
E|--------------------------------------------------------------------------|

e|--------------------------------------------------------------------------|
B|--------------------------------------------------------------------------|
G|-7--5-----5--------------------------7--5-----5---------------------------|
D|-------7-----7--5--7--5--------------------7-----7--5--7--5---------------|
A|-------------------------8--7--5--7--------------------------8--7--5--7---|
E|--------------------------------------------------------------------------|

e|--------------------------------------------------------------------------|
B|--------------------------------------------------------------------------|
G|-7--5-----5--------------------------7----7--7--7--7--7--7--7--7--5---5---|
D|-------7-----7--5--7--5--------------7----7--7--7--7--7--7--7--7--5---5---|
A|-------------------------8--7--5--7--5----5--5--5--5--5--5--5--5--3---3---|
E|--------------------------------------------------------------------------|

e|--------------------------------------------------------------------------|
B|--------------------------------------------------------------------------|
G|-------------3--3--3--3--7--7--7--7--5--5--5--5---7--7--7--7--7--7--7--7--|
D|-3--3--3--3--3--3--3--3--7--7--7--7--5--5--5--5---7--7--7--7--7--7--7--7--|
A|-3--3--3--3--1--1--1--1--5--5--5--5--3--3--3--3---5--5--5--5--5--5--5--5--|
E|-1--1--1--1---------------------------------------------------------------|

e|--------------------------------------------------------------------------|
B|--------------------------------------------------------------------------|
G|-5---5---------------3--3--3--3--7--7--7--7--5--5--5--5-------------------|
D|-5---5---3--3--3--3--3--3--3--3--7--7--7--7--5--5--5--5-------------------|
A|-3---3---3--3--3--3--1--1--1--1--5--5--5--5--3--3--3--3-------------------|
E|---------1--1--1--1-------------------------------------------------------|

e|--------------------------------------------------------------------------|
B|--------------------------------------------------------------------------|
G|-3--3--3--3--3--3--3--3--2--2---7---------------5--5--5--5---3------------|
D|-3--3--3--3--3--3--3--3--2--2---7---3--3--3--3--5--5--5--5---3------------|
A|-1--1--1--1--1--1--1--1--0--0---5---3--3--3--3--3--3--3--3---1------------|
E|------------------------------------1--1--1--1----------------------------|

e|--------------------------------------------------------------------------|
B|--------------------------------------------------------------------------|
G|-3--3--3--3--3--3--3--3--2--2---7---------------5--5--5--5---3------------|
D|-3--3--3--3--3--3--3--3--2--2---7---3--3--3--3--5--5--5--5---3------------|
A|-1--1--1--1--1--1--1--1--0--0---5---3--3--3--3--3--3--3--3---1------------|
E|------------------------------------1--1--1--1----------------------------|

e|--------------------------------------------------------------------------|
B|----------------------------------------------------13--11--13--11------11|
G|-------------5--5--5--5---3---7--9--9-b10--7--9--9------------------14----|
D|-3--3--3--3--5--5--5--5---3-----------------------------------------------|
A|-3--3--3--3--3--3--3--3---1-----------------------------------------------|
E|-1--1--1--1---------------------------------------------------------------|

e|-------------------------------------15--17--18--17--15--17--15-----17----|
B|-----11--13--15--13--12---15--17--18-----------------------------18-------|
G|-14-----------------------------------------------------------------------|
D|--------------------------------------------------------------------------|
A|--------------------------------------------------------------------------|
E|--------------------------------------------------------------------------|

e|-15------15------------------------------------------------------15--17---|
B|-----18------18--17--15--------------15--17--18--17--15--17--18-----------|
G|-------------------------17--15--17---------------------------------------|
D|--------------------------------------------------------------------------|
A|--------------------------------------------------------------------------|
E|--------------------------------------------------------------------------|

e|-18--18/20--18--20--20/22--20--18--17--18p17p15--17--15------15-----------|
B|---------------------------------------------------------18------18--17---|
G|--------------------------------------------------------------------------|
D|--------------------------------------------------------------------------|
A|--------------------------------------------------------------------------|
E|--------------------------------------------------------------------------|

e|-----------------------------------------15------15-----------------------|
B|-15--------------15--17--15--15--17--18------18------18--17--15-----------|
G|-----17--15--17--------------------------------------------------17--15---|
D|--------------------------------------------------------------------------|
A|--------------------------------------------------------------------------|
E|--------------------------------------------------------------------------|

e|--------------------------------------------------------------------------|
B|-17--15-------------------------------------------------------------------|
G|---------3--3--3--3--3--3--3--3--2--2---7---------------5--5--5--5---3----|
D|---------3--3--3--3--3--3--3--3--2--2---7---3--3--3--3--5--5--5--5---3----|
A|---------1--1--1--1--1--1--1--1--0--0---5---3--3--3--3--3--3--3--3---1----|
E|--------------------------------------------1--1--1--1--------------------|

e|--------------------------------------------------------------------------|
B|--------------------------------------------------------------------------|
G|-3--3--3--3--3--3--3--3--2--2---7---------------5--5--5--5---3------------|
D|-3--3--3--3--3--3--3--3--2--2---7---3--3--3--3--5--5--5--5---3------------|
A|-1--1--1--1--1--1--1--1--0--0---5---3--3--3--3--3--3--3--3---1------------|
E|------------------------------------1--1--1--1----------------------------|

e|--------------------------------------------------------------------------|
B|--------------------------------------------------------------------------|
G|-------------5--5--5--5---3---7--7--7--7--7--7--7--7--5---5---------------|
D|-3--3--3--3--5--5--5--5---3---7--7--7--7--7--7--7--7--5---5---3--3--3--3--|
A|-3--3--3--3--3--3--3--3---1---5--5--5--5--5--5--5--5--3---3---3--3--3--3--|
E|-1--1--1--1---------------------------------------------------1--1--1--1--|

e|--------------------------------------------------------------------------|
B|--------------------------------------------------------------------------|
G|-3--3--3--3--7--7--7--7--5--5--5--5---7--7--7--7--7--7--7--7--5---5-------|
D|-3--3--3--3--7--7--7--7--5--5--5--5---7--7--7--7--7--7--7--7--5---5-------|
A|-1--1--1--1--5--5--5--5--3--3--3--3---5--5--5--5--5--5--5--5--3---3-------|
E|--------------------------------------------------------------------------|

e|--------------------------------------------------------------------------|
B|--------------------------------------------------------------------------|
G|-------------3--3--3--3--7--7--7--7--5--5--5--5---3--3--3--3--3--3--3--3--|
D|-3--3--3--3--1--1--1--1--7--7--7--7--5--5--5--5---3--3--3--3--3--3--3--3--|
A|-3--3--3--3--1--1--1--1--5--5--5--5--3--3--3--3---1--1--1--1--1--1--1--1--|
E|-1--1--1--1---------------------------------------------------------------|

e|--------------------------------------------------------------------------|
B|--------------------------------------------------------------------------|
G|-2--2---7---------------5--5--5--5---3---3--3--3--3--3--3--3--2--2---7----|
D|-2--2---7---3--3--3--3--5--5--5--5---3---3--3--3--3--3--3--3--2--2---7----|
A|-0--0---5---3--3--3--3--3--3--3--3---1---1--1--1--1--1--1--1--1--0---5----|
E|------------1--1--1--1----------------------------------------------------|

e|--------------------------------------------------------------------------|
B|--------------------------------------------------------------------------|
G|-------------5--5--5--5---3---------------5--5--5--5---3------------------|
D|-3--3--3--3--5--5--5--5---3---3--3--3--3--5--5--5--5---3------------------|
A|-3--3--3--3--3--3--3--3---1---3--3--3--3--3--3--3--3---1------------------|
E|-1--1--1--1-------------------1--1--1--1----------------------------------|

e|-------------------------------------12--13-------------------------------|
B|--------------------------------------------------------------------------|
G|-----------------5---5---5---5----3---------------------------------------|
D|-3---3---3---3---5---5---5---5----3---------------------------------------|
A|-3---3---3---3---3---3---3---3----1---------------------------------------|
E|-1---1---1---1------------------------------------------------------------|
************************************

| /   slide up
| \   slide down
| h   hammer-on
| p   pull-off
| ~   vibrato
| +   harmonic
| x   Mute note
| b   Bend
| pb  Pre-bend
| br  Bend release
| pbr Pre-bend release
| brb Bend release bend

************************************

            
            
Suggest correction
Creating personal tab
Creating personal tab
You can edit any tab online and save it as your Personal.

You can edit, replace or remove any tab part or add personal notes – all changes will be seen only by you.

Personal tabs can be accessed anytime from any device, even offline.
Learn more »
comments
print report bad tab
1 comment total.
0 reply
cyronux 10 May 26, 2017 02:50 PM

the intro is wrong you put one chord but there is obviously three!

guest
You may want to rate the tab now too:
select rating
Wanna post a correction for this tab? Suggest correction