Oops, an error
Loading. Please wait.

Power Rangers Theme tab

version 3
version 3

Whole song

Interactive

19 views 3 this week
no commentswrite comment
1 2 3 4 5
3 more votes to show rating
add to favorites
×
Save as Personal and add changes to this tab that will be seen only by you. Learn more ›
×
You can save this tab as Personal to edit and correct it or add notes. All changes will be seen only by you. Learn more »
launch autoscroll
font size
0
reset
how to read this tab
guitar tuner
edit
Autoscroll
slow
fast
+/-
esc
set tempo
stop
[Intro]
e|----------------|---------------|---------------|--------------------|
B|----------------|---------------|---------------|--------------------|
G|--------------9-|-------------9-|-------------9-|-------------9h10---|
D|--------------9-|-------------9-|-------------9-|-------------9h10---| x3
A|----------------|---------------|---------------|--------------------|
E|--0--0--0--0----|-0--0--0--0----|-0--0--0--0----|-0--0--0--0---------|

e|------------|-----------|-------------|
B|------------|-----------|-------------|
G|----------9-|---------9-|---------9---|
D|----------9-|---------9-|---------9---|
A|------------|-----------|-------------|
E|--0-0-0-0---|-0-0-0-0---|-0-0-0-0-----|

[Verse]
(Very Fast)                                                                      (let it ring)
e|--3--3--3--3--|-5--5--5--5--|-2--2--2--2--|-7--7--7--7--|-8--8--8--8--|8--8--8--8-----7---|
B|---5--5--5--5-|--7--7--7--7-|--4--4--4--4-|--5--5--5--5-|--5--5--5--5-|-5--5--5--5----7---|
G|----5--5--5--5|---7--7--7--7|---4--4--4--4|---7--7--7--7|---7--7--7--7|--7--7--7--7---9---|
D|--------------|-------------|-------------|-------------|-------------|-------------------|
A|--------------|-------------|-------------|-------------|-------------|-------------------|
E|--------------|-------------|-------------|-------------|-------------|-------------------|

[Chorus]
           (hold the note and bend if you want)
e|------------------------7--5---------|
B|------------8--------5--------8--7---|
G|--9--9--7h9----9b--------------------|
D|-------------------------------------| x2
A|-------------------------------------|
E|-------------------------------------|
   Go Go PowerRangers!

    (pay attention to the space between the notes)
e|------------------------------------------|
B|--6--6--6-6-6-6--6-6-6-6--6--6--8--6--5---|
G|------------------------------------------|
D|------------------------------------------|
A|------------------------------------------|
E|------------------------------------------|
 Go Go PowerRangers!MightyMorphing PowerRangers!

[Verse]
e|--------------|------------|------------|----------|
B|--------------|------------|------------|----------|
G|-----------7h9|---------7h9|---------7h9|----------|
D|-----------7h9|---------7h9|---------7h9|----------|
A|--------------|------------|------------|----------|
E|--0--0--0-----|0--0--0-----|0--0--0-----|0--0--0---|

e|---------------------|
B|--3--4--5--6--7--8---|
G|--2--3--4--5--6--7---|
D|---------------------|
A|---------------------|
E|---------------------|

[Chorus]
  (hold the note and
   bend if you want)             (hold the note)
e|------------------------7--5---------|
B|------------8--------5--------8--7---|
G|--9--9--7h9----9b--------------------|
D|-------------------------------------| x2
A|-------------------------------------|
E|-------------------------------------|
   Go Go PowerRangers!

    (pay attention to the 
    space between the notes)           (hold the note)
e|------------------------------------------|
B|--6--6--6-6-6-6--6-6-6-6--6--6--8--6--5---|
G|------------------------------------------|
D|------------------------------------------|
A|------------------------------------------|
E|------------------------------------------|
 Go Go PowerRangers!MightyMorphing PowerRangers!

***********************************

| b bend
| h hammer

***********************************

            
            
Suggest correction
Creating personal tab
Creating personal tab
You can edit any tab online and save it as your Personal.

You can edit, replace or remove any tab part or add personal notes – all changes will be seen only by you.

Personal tabs can be accessed anytime from any device, even offline.
Learn more »
Give kudos to tab author, rate the tab!
1 2 3 4 5
comments
print report bad tab
guest
You may want to rate the tab now too:
select rating
Wanna post a correction for this tab? Suggest correction