Oops, an error
Loading. Please wait.

Sesame Street Theme tab

version 3
version 3

Whole song

4,371 views 1 this week
6 commentsread comments
1 2 3 4 5
x 75
add to favorites
×
Save as Personal and add changes to this tab that will be seen only by you. Learn more ›
×
You can save this tab as Personal to edit and correct it or add notes. All changes will be seen only by you. Learn more »
launch autoscroll
font size
0
reset
how to read this tab
guitar tuner
edit
Autoscroll
slow
fast
+/-
esc
set tempo
stop
Author
sesame street theme:
by Cass Cass
babe_made_in_australia@hotmail.com

e|------------------------------------------------------------------------|
B|---------------------------------------------1-----------------1--------|
G|-0-0--2-2--3-3--2-3-2--0-0--2-2--3-3--2-3-2----2--------0-2------2------|
D|-------------------------------------------------3----3------------3----|
A|------------------------------------------------------------------------|
E|------------------------------------------------------------------------|

e|----------------------------------------------------------|
B|----1-------------0-1-3----3-4-3-1-----------------1-1-1--|
G|------2------0-2---------5---------2-0--0-2-3-2--0--------|
D|--------3--3----------------------------------------------|
A|----------------------------------------------------------|
E|----------------------------------------------------------|

            
            
Suggest correction
Creating personal tab
Creating personal tab
You can edit any tab online and save it as your Personal.

You can edit, replace or remove any tab part or add personal notes – all changes will be seen only by you.

Personal tabs can be accessed anytime from any device, even offline.
Learn more »
comments
print report bad tab
6 comments total. Showing first comments.
+6 reply
chloe 10 Apr 23, 2002 08:00 PM

how cool is that! seseame street rocks! elmo is such a dude!

0 reply
ianscrandlecake 10 Feb 09, 2007 02:53 PM

flippin sweet tab, keep it intense

0 reply
JukeB0X Hero 10 Aug 09, 2007 05:24 PM

....i dont get it lol
whats with the end...

guest
You may want to rate the tab now too:
select rating
Wanna post a correction for this tab? Suggest correction