Oops, an error
Loading. Please wait.

Sherlock Bbc Theme tab

12,668 views 6 this week
6 commentsread comments
1 2 3 4 5
x 22
add to favorites
×
Save as Personal and add changes to this tab that will be seen only by you. Learn more ›
×
You can save this tab as Personal to edit and correct it or add notes. All changes will be seen only by you. Learn more »
launch autoscroll
font size
0
reset
how to read this tab
guitar tuner
edit
Autoscroll
slow
fast
+/-
esc
set tempo
stop
Author
Difficulty
  Am           D            Dm          Am
E|-------3-----2-----------|-1-----1-----0-----------|
B|-1---------------3-------|-------------------------|
G|-------------------------|-------------------------|
D|-------------------------|-------------------------|
A|-------------------------|-------------------------|
E|-------------------------|-------------------------|

  Am           D              Dm             Am
E|-------0-------------------|-------------------------|
B|-1-----------3-------------|-------------------------|
G|----------------2------2-4-|-5----7-4----5-2---------|
D|---------------------------|-------------------------|
A|---------------------------|-------------------------|
E|---------------------------|-------------------------|

            
            
Suggest correction
Creating personal tab
Creating personal tab
You can edit any tab online and save it as your Personal.

You can edit, replace or remove any tab part or add personal notes – all changes will be seen only by you.

Personal tabs can be accessed anytime from any device, even offline.
Learn more »
comments
print report bad tab
6 comments total. Showing first comments.
+1 reply
derringerhk 10 Jul 01, 2013 03:52 AM

Finally! Somebody realises that THIS is the actual theme (as in, from the opening titles)!

+3 reply
vinaychavan22 10 Jan 14, 2014 04:28 AM

Am D Dm Am
E|-------3-----2-----------|-------1-----0-----------|
B|-1---------------3-------|-3-----------------------|
G|-------------------------|-------------------------|
D|-------------------------|-------------------------|
A|-------------------------|-------------------------|
E|-------------------------|-------------------------|

Am D Dm Am
E|-------0-------------------|-------------------------|
B|-1-----------3-------------|-------------------------|
G|----------------2------2-4-|-5----7-4----5-2---------|
D|---------------------------|-------------------------|
A|---------------------------|-------------------------|
E|---------------------------|-------------------------|

+1 reply
adarshraja1995 10 Jan 20, 2014 05:43 AM

can someone please tell me how to play this with the Am, D and Dm chords written above the tab? I know that the numbers are frets but i don't know how to play this with those chords. new to this.

thank you for the help

guest
You may want to rate the tab now too:
select rating
Wanna post a correction for this tab? Suggest correction