Oops, an error
Loading. Please wait.

The Walking Dead - Heads Up solo tab

151 views 1 this week
no commentswrite comment
1 2 3 4 5
3 more votes to show rating
add to favorites
×
Save as Personal and add changes to this tab that will be seen only by you. Learn more ›
×
You can save this tab as Personal to edit and correct it or add notes. All changes will be seen only by you. Learn more »
launch autoscroll
font size
0
reset
how to read this tab
guitar tuner
edit
Autoscroll
slow
fast
+/-
esc
set tempo
stop
Author
Difficulty
Artist: Misc Soundtrack
Song: The Walking Dead - Heads Up
Tuning; Standard

The guitar solo part of the song playing in 6x07 "Heads Up" when Glenn escapes from under the dumpster.
Based off this: https://www.youtube.com/watch?v=hu1vvGzihzk starting at the 1:50 mark.
I play this with a bit of overdrive and reverb to get the most original sound, but it's all
personal preference.

e|---------------------------|---------------------------|---------------------------|----------------------|
B|---------------------------|---------------------------|---------------------------|--12--------17--------|
G|-----9--11--\1-------------|-----9--11----11/16--16----|-----9--11----11/14--14----|--11----14------------|
D|---------------------------|---------------------------|---------------------------|--9-------------------|
A|---------------------------|---------------------------|---------------------------|----------------------|
E|--0------------------------|--0------------------------|--0------------------------|----------------------|

e|---------------------------|---------------------------|----------------------|
B|---------------------------|---------------------------|--12--------17--------|
G|-----9--11--\1-------------|-----9--11----11/16--16----|--11----14------------|
D|---------------------------|---------------------------|--9-------------------| 
A|---------------------------|---------------------------|----------------------|
E|--0------------------------|--0------------------------|----------------------|

e|----------------------------|----------------------------|----------------------------|
B|----------------------------|----------------------------|----------------------------|
G|-----9--8-------------------|-----9--8----9/11~~~~-------|-----9--8-------------------|
D|-----------9----4/6~~~~-----|-----------------------6----|-----------9----\2~~~~------|
A|----------------------------|----------------------------|----------------------------|
E|--0-------------------------|--0-------------------------|--0-------------------------|


************************************

| /   Slide up
| \   Slide down
| ~   Vibrato

************************************

            
            
Suggest correction
Creating personal tab
Creating personal tab
You can edit any tab online and save it as your Personal.

You can edit, replace or remove any tab part or add personal notes – all changes will be seen only by you.

Personal tabs can be accessed anytime from any device, even offline.
Learn more »
Give kudos to tab author, rate the tab!
1 2 3 4 5
comments
print report bad tab
guest
You may want to rate the tab now too:
select rating
Wanna post a correction for this tab? Suggest correction