Oops, an error
Loading. Please wait.

Top Gear Theme tab

version 1
version 1

Whole song

105,359 views 99 this week
24 commentsread comments
1 2 3 4 5
x 64
add to favorites
×
Save as Personal and add changes to this tab that will be seen only by you. Learn more ›
×
You can save this tab as Personal to edit and correct it or add notes. All changes will be seen only by you. Learn more »
launch autoscroll
font size
0
reset
how to read this tab
guitar tuner
edit
Autoscroll
slow
fast
+/-
esc
set tempo
stop
Author
Unregistered
e|--------------9---10---10/12---10---9---------------------------------------|
B|---------10--------------------------------10-------------------------------|
G|----9-------------------------------------------9---7---6---7---9-----------|
D|----------------------------------------------------------------------------|
A|----------------------------------------------------------------------------|
E|----------------------------------------------------------------------------|

e|--------------9---10---10/12---10---9---------------------------------------|
B|---------10--------------------------------10-------------------------------|
G|----9-------------------------------------------9---7---6---7---9-----------|
D|----------------------------------------------------------------------7-----|
A|----------------------------------------------------------------------------|
E|----------------------------------------------------------------------------|

e|--------------9/10---10/12---10---9-----------------------------------------|
B|---------10--------------------------------10-------------------------------|
G|----9-------------------------------------------9---7---6---7--9/11\9-------|
D|----------------------------------------------------------------------------|
A|----------------------------------------------------------------------------|
E|----------------------------------------------------------------------------|



************************************

| /  Slide up
| \  Slide down

************************************

            
            
Suggest correction
Creating personal tab
Creating personal tab
You can edit any tab online and save it as your Personal.

You can edit, replace or remove any tab part or add personal notes – all changes will be seen only by you.

Personal tabs can be accessed anytime from any device, even offline.
Learn more »
comments
print report bad tab
24 comments total. Showing first comments.
0 reply
agracer 10 Dec 28, 2003 07:00 PM

I thought it perfect

+4 reply
alexthecheese 31 Jul 09, 2005 08:00 PM

This is taken from a song by the Allman Brothers Band, Jessica - I think.

+6 reply
Redrum666 10 Oct 02, 2005 09:29 AM

it is good but the end is missed out so i figured it out in like 2 secs but first u repeat the main bit again then it goes liek this:
e-----------------------------------------8-----------
b-------------------------------7----8---------10-------
g-------------------7------9----------------------------
d--7-----9----10------------------------------------------
a-------------------------------------------------
e--------------------------------------------------

guest
Wanna post a correction for this tab? Suggest correction