Oops, an error
Loading. Please wait.

Volkswagen Commercial tab

version 3
version 3

Whole song

Interactive

4,317 views 1 this week
5 commentsread comments
1 2 3 4 5
x 6
add to favorites
×
Save as Personal and add changes to this tab that will be seen only by you. Learn more ›
×
You can save this tab as Personal to edit and correct it or add notes. All changes will be seen only by you. Learn more »
launch autoscroll
font size
0
reset
how to read this tab
guitar tuner
edit
Autoscroll
slow
fast
+/-
esc
set tempo
stop
Author
Difficulty
-------------------------------------------------------------------------------
			     John Mayer VW Ad
-------------------------------------------------------------------------------
Tabbed by: nick dupont (sikk_nick)
Email: sikk_nick@yahoo.com

I already did slash, and Nigel is on the way…

Tuning: standard--[E,A,D,G,B,e]

            roll
e|------------~3----------------|
B|-(0)-------~3-----------------|
G|-(4)------~4------------------|
D|---------~5-------------------|
A|--------~5--------------------|
E|--------3---------------------|
                         
                     
e|--/15----6---3-~---3-|----------------------|
B|---------------------|-6p3---3--3-----------|
G|---------------------|-----5----------------|
D|---------------------|-------------5--3-----|
A|---------------------|-------------------x--| X= pm 5th fret- A-string
E|---------------------|----------------------|   (light palm mute)

e|--/15----6---3-~---3-|----------------------|
B|---------------------|-6p3---3--3-----------|
G|---------------------|-----5----------------|
D|---------------------|-------------5--3-----|
A|---------------------|-------------------x--| X= pm 5th fret (A-string)
E|---------------------|----------------------|   (light palm mute)

e|--/15----6---3-~---3-|--------13--15~~------|
B|---------------------|-6p3------------------|
G|---------------------|-----5----------------|
D|---------------------|----------------------|
A|---------------------|----------------------| 
E|---------------------|----------------------|   


e|--18^---------20-|--18--15--------------|--------*car door slamming part---|
B|--15^---x-x---x--|-------x--------------|----------------------------------|
G|--------x-x---x--|-----------17---17-15-|--------4---4---------------------|
D|-----------------|----------------------|--17----3---3--- or ---9---9------|
A|-----------------|----------------------|--------5---5----------8---8------|
E|-----------------|----------------------|----------------------10---10-----|

e|--------10^fb--|--10~~-8h10-----|----------------|--------------------|------|
B|------8--------|------------11--|-8--------------|--------------------|------|
G|-/7h9----------|----------------|----5---5h7---7-|--------------------|------|
D|---------------|----------------|------8-----8---|-5p3----------------|------|
A|---------------|----------------|----------------|------3---3h5--1^---|------|
E|---------------|----------------|----------------|--------6-----(1^)--|-3----|

   Scrapes guitar along door…
e|---xx-\\\\\-x-/////-xx-------|1.start at about the 18th fret---------------|
B|---xx-\\\\\-x-/////-xx-------|2.pull towards you, to about the 3rd fret----|
G|---xx-\\\\\-x-/////-xx-------|3.push it back up to where you started...----|
D|---xx-\\\\\-x-/////-xx-------|---------------------------------------------|
A|---xx-\\\\\-x-/////-xx-------|---xx=about 18-------------------------------|
E|---xx-\\\\\-x-/////-xx-------|----x=about 3------------be careful...-------|

e|----------------------|-----------------|---------------|
B|----------------------|-----------------|---------------|
G|--3~~~~~--------------|-----------------|--x--3+~~------|  
D|---------5p3----------|-----3tr(5)------|--x------------|
A|-------------5--3-----|--x--------------|---------------|
E|-------------------6--|--x--------------|---------------|


e|--------10^fb--|--10~~-8h10-----|----------------|--------------------|------|
B|------8--------|------------11--|-8--------------|--------------------|------|
G|-xx/9----------|----------------|----5---5h7---7-|--------------------|------|
D|-x-------------|----------------|------8-----8---|-5p3----------------|------|
A|---------------|----------------|----------------|------3---3h5--1^---|------|
E|---------------|----------------|----------------|--------6-----(1^)--|-3----|


e|---(15)-\-------|    |-- the important ---------------------|
B|----15--\-------|    |-- notes are the ---------------------|
G|----14--\-------|    |-- G, D, and A-strings ---------14----|
D|----17--\-------|    |--------------------------------17----|
A|----17--\-------|    |---(for the last chord)---------17----|
E|---(15)-\-------|    |--------------------------------------|


KEY:
| /  slide up
| \  slide down
| h  hammer-on
| p  pull-off
| ~  vibrato
| +  harmonic** 
	| x  Mute note  (completely muted note, unless noted)
	| ( )  ghost note
	| ^    small bend
	| ^fb  full bend  (should sound 2 notes higher, same as 2 frets higher)
	| tr   trill* 

**harmonic  -- gently palm mute the string (w/ pick hand) and do a pinch harmonic
     [the one time it is used is right after the car scrapes]


*trill  -- If you don’t know what a trill is, here is an example from the song:

|--3tr(5)--|  means |--3h5p3h5p3h5p3h5p3h5--| (really fast)



Ok Nigel Tufnel is coming soon… enjoy
===============================================================================
Keywords: VW Volkswagen first act john mayer ad commercial advertisement guitar tab

            
            
Suggest correction
Creating personal tab
Creating personal tab
You can edit any tab online and save it as your Personal.

You can edit, replace or remove any tab part or add personal notes – all changes will be seen only by you.

Personal tabs can be accessed anytime from any device, even offline.
Learn more »
comments
print report bad tab
5 comments total. Showing first comments.
+1 reply
sloppyjoe24 826 Dec 15, 2006 11:21 AM

I am not afraid to admit that your tabs are a bit more accurate than mine. nice work. :-)

0 reply
master_ 10 Dec 15, 2006 11:42 AM

wow. perfect

0 reply
swe_fender 87 Dec 20, 2006 11:04 AM

Can someone link to the commercial or something? I'm in sweden and I cant watch it on TV :(

guest
You may want to rate the tab now too:
select rating
Wanna post a correction for this tab? Suggest correction