Oops, an error
Loading. Please wait.

Auld Lang Syne chords

version 1
451,084 views 555 this week
13 commentsread comments
1 2 3 4 5
x 104
add to favorites
×
Save as Personal and add changes to this tab that will be seen only by you. Learn more ›
×
You can save this tab as Personal to edit and correct it or add notes. All changes will be seen only by you. Learn more »
launch autoscroll
font size
0
reset
transpose
0
reset
simplify chords
display chords
guitar tuner
edit
Autoscroll
slow
fast
+/-
esc
set tempo
stop
Strumming
There is no strumming pattern for this song yet. and get +5 IQ
F                C7
Should old acquaintance be forgot
    F                Bb
And never brought to mind
      F                C7
Should old acquaintance be forgot
A   Dm   Gm7     C7   F
And days of auld lang syne

For auld lang syne, my dear,
For auld lang syne,
We'll take a cup o'kindness yet
And days of auld lang syne

The original poem has another verse, but nobody ever sings it. 

Special bonus (because I don't want to go back to studying yet): Melody tab

e|-----------5---------5-3-----5--8--10--10--8--5-5----------5-3---------|
B|---6--5-6-----8-6-8------6-6----------------------6--8-6-8----6-------6|
G|-5--------------------------------------------------------------7-7-5--|
D|-----------------------------------------------------------------------|
A|-----------------------------------------------------------------------|
E|-----------------------------------------------------------------------|


e|-10--8--5-5-----------10--8--5-5--8--10--10--8--5-5---------5-3--------|
B|------------6--8-6-8--------------------------------6-8-6-8----6------6|
G|-----------------------------------------------------------------7-7-5-|
D|-----------------------------------------------------------------------|
A|-----------------------------------------------------------------------|
E|-----------------------------------------------------------------------|

Play with a wah-wah and very heavy distortion; it sounds cool, really.

            
            
Suggest correction
Creating personal tab
Creating personal tab
You can edit any tab online and save it as your Personal.

You can edit, replace or remove any tab part or add personal notes – all changes will be seen only by you.

Personal tabs can be accessed anytime from any device, even offline.
Learn more »
comments
print report bad tab
13 comments total. Showing first comments.
+6 reply
01johma 10 Nov 18, 2003 07:00 PM

Robert burns is a scot poet

+3 reply
macaibhistin 10 Dec 11, 2004 07:00 PM

Thanks, Alec. Yes, to be sure Robbie Burns is Scotland's most famous poet and songwriter. Auld Lang Syne's original melody is different than what is often played these days. To hear a beautiful rendition to the original melody, take a listen to The Barra MacNeil's version on their Christmas Album cd.

+4 reply
caspergomez 10 Feb 20, 2006 10:31 AM

Rabbie Burns english!!! what!!!! how dare you!! hahaha

guest
Wanna post a correction for this tab? Suggest correction