Oops, an error
Loading. Please wait.

Australian National Anthem bass

version 1
version 1

Whole song

Interactive

4,325 views 1 this week
3 commentsread comments
1 2 3 4 5
x 5
add to favorites
×
Save as Personal and add changes to this tab that will be seen only by you. Learn more ›
×
You can save this tab as Personal to edit and correct it or add notes. All changes will be seen only by you. Learn more »
launch autoscroll
font size
0
reset
guitar tuner
edit
Autoscroll
slow
fast
+/-
esc
set tempo
stop
------------------------------------------------------------------
                         Advance Australia Fair
------------------------------------------------------------------

G|0--5--0---------0---5--5--5----9---7--5---4-----5---7----------|
D|------------2--------------------------------------------------|
A|---------------------------------------------------------------|
E|---------------------------------------------------------------|
  Australians all let us rejoice for we are young and free

G|0-----5--0------------0------0---0-----9---7----5--4----2--0---|
D|-------------2-------------------------------------------------|
A|------------------3--------------------------------------------|
E|---------------------------------------------------------------|
  We've golden soil and wealth for toil, our home is girt by sea

G|0---2----4-5-----2--0--------------0--2---5--10---9---7--------|
D|-----------------------2-----2---------------------------------|
A|---------------------------------------------------------------|
E|---------------------------------------------------------------|
  Our land abounds in nature's gifts of beauty rich and rare

G|0--2----4----5----2---0---5--5-----7--9-----5--7--4---5--------|
D|---------------------------------------------------------------|
A|---------------------------------------------------------------|
E|---------------------------------------------------------------|
  In hist-ry's page let ev'-ry stage ad-vance Australia Fair

G|9--10-9---7-------5----4---2--0----5--9-----5--7--4---5--------|
D|---------------------------------------------------------------|
A|---------------------------------------------------------------|
E|---------------------------------------------------------------|
  In joyful strains then let us sing Ad-vance Australia Fair

            
            
Suggest correction
Creating personal tab
Creating personal tab
You can edit any tab online and save it as your Personal.

You can edit, replace or remove any tab part or add personal notes – all changes will be seen only by you.

Personal tabs can be accessed anytime from any device, even offline.
Learn more »
comments
print report bad tab
3 comments total.
0 reply
nuclearkow 10 Apr 01, 2002 07:00 PM

that's great, I wish someone would put the guitar tabs here, or I'll have to play this on my guitar

0 reply
tomdabomb 50 Jun 08, 2003 08:00 PM

no corrections fooled ya

0 reply
Rockn_Clay 141 May 26, 2004 08:00 PM

YAY GOOD TAB BUDDY!!!

guest
Wanna post a correction for this tab? Suggest correction