Oops, an error
Loading. Please wait.

Greensleeves tab

version 11
version 11

Whole song

16,298 views 117 this week
4 commentsread comments
1 2 3 4 5
x 61
add to favorites
×
Save as Personal and add changes to this tab that will be seen only by you. Learn more ›
×
You can save this tab as Personal to edit and correct it or add notes. All changes will be seen only by you. Learn more »
launch autoscroll
font size
0
reset
how to read this tab
guitar tuner
edit
Autoscroll
slow
fast
+/-
esc
set tempo
stop
Greensleeves by King Henry VIII
U can play it with capo on 4 or without capo, but if u want to sing along with it, i prefer with capo on 4.
This is how it goes.


  Am                     G                 Am                E
e|-----|--------0--1--0--|-----------------|-----------------|----------------|
B|-----|--1--3-----------|--3--0--------0--|--1--------------|--0-----------0-|
G|--2--|-----------------|--------0--2-----|-----2--2--1--2--|-----1-----2----|
D|-----|-----------------|-----------------|-----------------|--------2-------|
A|-----|--0-----0--------|-----------------|--0-----0--------|--2-------------|
E|-----|-----------------|--3-----3--------|-----------------|--------0-------|

 Am                G                 Am       E           Am          Am
e|--------0--1--0--|-----------------|--------------------|-----------|-----0--|
B|--1--3-----------|--3--0--------0--|--1--0--------------|-----------|--1-----|
G|-----------------|--------0--2-----|--------2--1-----1--|--2-----2--|--------|
D|-----------------|-----------------|--------------4-----|-----2-----|--------|
A|--0-----0--------|-----------------|--0-----0--2--------|--0-----0--|--------|
E|-----------------|--3-----3--------|--------------------|-----------|--------|


  C              G                 Am                E
e|--3-3-3--1--0--|-----------------|-----------------|-----------------|
B|---------------|--3--0--------0--|--1--------------|--0-----------0--|
G|---------------|--------0--2-----|-----2--2--1--2--|-----1-----2-----|
D|---------------|-----------------|-----------------|--------2--------|
A|--3-3-3--------|-----------------|--0-----0--------|--2--------------|
E|---------------|--3-----3--------|-----------------|--------0--------|

  C              G                 Am       E           Am         Amaj7
e|--3--3--1--0---|-----------------|--------------------|----------|--0--|
B|----1----------|--3--0--------0--|--1--0--------------|----------|--2--|
G|---------------|--------0--2-----|--------2--1-----1--|--2---2---|--1--|
D|---------------|-----------------|--------------4-----|----2-----|--2--|
A|--3--3---------|-----------------|--0-----0-----------|--0---0---|--0--|
E|---------------|--3-----3--------|-----------0--------|----------|-----| 

            
            
Suggest correction
Creating personal tab
Creating personal tab
You can edit any tab online and save it as your Personal.

You can edit, replace or remove any tab part or add personal notes – all changes will be seen only by you.

Personal tabs can be accessed anytime from any device, even offline.
Learn more »
comments
print report bad tab
4 comments total. Showing first comments.
+2 reply
Openmill 10 Dec 21, 2015 01:17 PM

thanks!! beautiful tab

+1 reply
HoodedBard 20 Dec 19, 2016 12:29 AM

How do i play the chords and the melody at the same time?

0 reply
limgh167 82 Jan 04, 2017 07:59 AM

U dont, the chord above the tab is like a guide to play the melody.
Like for example this one :
Am
e|-----|--------0--1--0--|
B|-----|--1--3-----------|
G|--2--|-----------------|
D|-----|-----------------|
A|-----|--0-----0--------|
E|-----|-----------------|

U can press the chord Am, so you can easily play the melody according the tab.
Hope this help. Haha

guest
You may want to rate the tab now too:
select rating
Wanna post a correction for this tab? Suggest correction