Oops, an error
Loading. Please wait.

Greensleeves tab

version 4
version 4

Whole song

43,106 views 24 this week
4 commentsread comments
1 2 3 4 5
x 16
add to favorites
×
Save as Personal and add changes to this tab that will be seen only by you. Learn more ›
×
You can save this tab as Personal to edit and correct it or add notes. All changes will be seen only by you. Learn more »
launch autoscroll
font size
0
reset
how to read this tab
guitar tuner
edit
Autoscroll
slow
fast
+/-
esc
set tempo
stop
Author
----------------------------------------------------------------------
                     Greensleeves - Unknown
----------------------------------------------------------------------

Tabbed By: MJ

If you have any questions email me : marquino6@hotmail.com with the subject GUITAR.
Standard Tuning
Timing: If you clicked into here you should already know the song, if not,
im sure once you get the song you will recognize it and be able to play it
quite easily.

Part A                              Part B
e|-------0--2--0-------------------|---------------------------------|
B|---1-3----------3--0--------0--1-|-------------0-------------------|
G|-2--------------------0--2-------|-2--2--1--2----1-----------------|
D|---------------------------------|------------------2--------------|
A|---------------------------------|---------------------------------|
E|---------------------------------|---------------------------------|

Part C                            Part D
e|-3--3--2--0--------------------|----------------------------------|
B|-------------3--0-------0--1---|-0--------------------------------|
G|-------------------0--2--------|---2--1----1--2------2v-----------|
D|-------------------------------|--------4-------------------------|
A|-------------------------------|----------------------------------|
E|-------------------------------|----------------------------------|


ORDER:
A
B
A
D
C
B
C
D


Easy, just play those parts in the order A-B, A-D, C-B, C-D, and repeat.
Great picking exercise, because you can speed up or slow down according to
how fast you can pick.

            
            
Suggest correction
Creating personal tab
Creating personal tab
You can edit any tab online and save it as your Personal.

You can edit, replace or remove any tab part or add personal notes – all changes will be seen only by you.

Personal tabs can be accessed anytime from any device, even offline.
Learn more »
comments
print report bad tab
4 comments total. Showing first comments.
0 reply
bobby544 180 Jan 17, 2003 07:00 PM

this is a very good tab. i think this guy tabbed out another version to mozart's version. mozart's version is version 1 and is much harder to play because it has chord between the notes. so if your not up to it don't even bother.

0 reply
subtlebob 10 Aug 20, 2006 07:54 PM

good if you just want to get the melody down

+1 reply
Bloody Mess 31 Jan 28, 2010 11:18 AM

paart a spunds better like this:
e|-------0--1--0-------------------|
B|---1-3----------3--0--------0--1-|
G|-2--------------------0--2-------|
D|---------------------------------|
A|---------------------------------|

guest
You may want to rate the tab now too:
select rating
Wanna post a correction for this tab? Suggest correction