Oops, an error
Loading. Please wait.

Greensleeves tab

version 2
version 2

Whole song

206,039 views 297 this week
30 commentsread comments
1 2 3 4 5
x 121
add to favorites
×
Save as Personal and add changes to this tab that will be seen only by you. Learn more ›
×
You can save this tab as Personal to edit and correct it or add notes. All changes will be seen only by you. Learn more »
launch autoscroll
font size
0
reset
how to read this tab
guitar tuner
edit
Autoscroll
slow
fast
+/-
esc
set tempo
stop
  This is a version of Greensleeves I got off my Classical guitar
teacher. Listen to a version for the rhythm. This version is in 3/4.

  The rhythm transcribed is fairly accurate. Any corrections welcome -
please post, do not E-Mail me. Enjoy!


  |   |   |    |   |   |    |   |   |    |   |   |
e|------------|------------|0-----1-0---|------------|
B|------------|1-------3---|------------|3-------0---|
G|--------2---|------------|------------|------------|
D|------------|------------|------------|------------|
A|------------|0-------2---|3-----------|------------|
E|------------|------------|------------|3-----------|

e|------------|------------|------------|------------|
B|--------0---|1-----------|------------|0-----------|
G|0-----2-----|--------2---|2-----1-2---|--------1---|
D|------------|------------|3-----------|2-----------|
A|2-----------|0-----------|------------|------------|
E|------------|------------|------------|------------|

e|------------|------------|0-----1-0---|------------|
B|------------|1-------3---|------------|3-------0---|
G|--------2---|------------|------------|------------|
D|2-----------|------------|------------|------------|
A|------------|0-------2---|3-----------|------------|
E|0-----------|------------|------------|3-----------|

e|------------|------------|------------|------------|
B|--------0---|1-----0-----|------------|------------|
G|0-----2-----|--------2---|1-------1---|2-----------|
D|------------|------------|------4-----|------------|
A|2-----------|0-----------|------------|0-----------|
E|------------|------------|0-----------|------------|

e|------------|3-----------|3-----2-0---|------------|
B|------------|------------|------------|3-------0---|
G|2-----------|------------|------------|------------|
D|------------|2-----------|2-----------|------------|
A|0-----------|3-----------|3-----------|------------|
E|------------|------------|------------|3-----------|

e|------------|------------|------------|------------|
B|--------0---|1-----------|------------|0-----------|
G|0-----2-----|--------2---|2-----1-2---|--------1---|
D|------------|------------|------------|2-----------|
A|2-----------|0-----------|0-----------|------------|
E|------------|------------|------------|------------|

e|------------|3-----------|3-----2-0---|------------|
B|------------|------------|------------|3-------0---|
G|------------|------------|------------|------------|
D|2-----------|2-----------|2-----------|------------|
A|------------|3-----------|3-----------|------------|
E|0-----------|------------|------------|3-----------|

e|------------|------------|------------|------------|
B|--------0---|1-----0-----|------------|------------|
G|0-----2-----|--------2---|1-------1---|2-----------|
D|------------|------------|------4-----|------------|
A|2-----------|0-----------|------------|0-----------|
E|------------|------------|0-----------|------------|

e|------------|
B|------------|
G|2-----------|
D|------------|
A|0-----------|
E|------------|


--
 Justin Clarke  jbclarke@tubbs.equinox.gen.nz

            
            
Suggest correction
Creating personal tab
Creating personal tab
You can edit any tab online and save it as your Personal.

You can edit, replace or remove any tab part or add personal notes – all changes will be seen only by you.

Personal tabs can be accessed anytime from any device, even offline.
Learn more »
comments
print report bad tab
30 comments total. Showing first comments. show 1 bad comment
+3 reply
andrewbiles 4,785 Jun 13, 2002 08:00 PM

very good, don't know why on earth I tried it though, such an odd song to learn

+3 reply
PaRaBoLaTooL420 80 Nov 27, 2003 07:00 PM

Good song, nice tab, one or two things that don't sound perfect - but then again, not an official tab... very good.

guest
Wanna post a correction for this tab? Suggest correction