Oops, an error
Loading. Please wait.

Happy Birthday bass

version 2
version 2

Whole song

100,195 views 15 this week
4 commentsread comments
1 2 3 4 5
x 41
add to favorites
×
Save as Personal and add changes to this tab that will be seen only by you. Learn more ›
×
You can save this tab as Personal to edit and correct it or add notes. All changes will be seen only by you. Learn more »
launch autoscroll
font size
0
reset
guitar tuner
edit
Autoscroll
slow
fast
+/-
esc
set tempo
stop
Author
Difficulty
I actually got this from a piano and just played the notes on the bass. But also i didnt 
any happy birth day tabs so i made my own... Hope you guys like it.


g|------------------------|  C D F E
d|---------3--------------|
a|-3-3-5-3---7------------|
e|------------------------|

g|------------------------|  C D G F
d|---------5-3------------|
a|-3-3-5-3----------------|
e|------------------------|

g|------5-2---------------|  C C A F E D
d|----------3-------------|
a|-3-3--------7-5---------|
e|------------------------|

g|-3-3-2------------------|  A# A F G F
d|-------3-5-3------------|
a|------------------------|
e|------------------------|

            
            
Suggest correction
Creating personal tab
Creating personal tab
You can edit any tab online and save it as your Personal.

You can edit, replace or remove any tab part or add personal notes – all changes will be seen only by you.

Personal tabs can be accessed anytime from any device, even offline.
Learn more »
comments
print report bad tab
4 comments total. Showing first comments.
-1 reply
bigcroker 10 Apr 03, 2009 04:30 AM

great tab man

-1 reply
300milesbassist 51 May 10, 2012 09:04 PM

thank you.

+3 reply
jr2lives 10 Jan 27, 2014 11:20 AM

Happy Birthday
-------------------------------------------------------------------------------

Tabbed by: JimR
E-mail: jr2lives@aol.com

Tuning: Standard

G|-------------------------------------------------------------------
D|----------3-2------------------------------------------------------
A|--3-3-5-3----------------------------------------------------------
E|-------------------------------------------------------------------

G|-------------------------------------------------------------------
D|----------5-3------------------------------------------------------
A|--3-3-5-3----------------------------------------------------------
E|-------------------------------------------------------------------

G|------5-2----------------------------------------------------------
D|----------3-2-0----------------------------------------------------
A|--3-3--------------------------------------------------------------
E|-------------------------------------------------------------------

G|--3-3-2------------------------------------------------------------
D|--------3-5-3-----------------------------------------------------|
A|-------------------------------------------------------------------
E|-------------------------------------------------------------------

Here is a variation of playing it with the same notes but a few different tabs that also work too Thanks for yours.

guest
You may want to rate the tab now too:
select rating
Wanna post a correction for this tab? Suggest correction