Oops, an error
Loading. Please wait.

Japanese Traditional - Sakura Sakura Cherry Blossoms tab

100 views 18 this week
no commentswrite comment
1 2 3 4 5
3 more votes to show rating
add to favorites
×
Save as Personal and add changes to this tab that will be seen only by you. Learn more ›
×
You can save this tab as Personal to edit and correct it or add notes. All changes will be seen only by you. Learn more »
launch autoscroll
font size
0
reset
how to read this tab
guitar tuner
edit
Autoscroll
slow
fast
+/-
esc
set tempo
stop
About this tab version
This the melody line to the Japanese Traditional piece Sakura Sakura circa: 1888. Was this info helpful? Yes No
    |    |    |    |         |    |    |    |         |    |    |    |
e|----------------------|------------------------|---------------------------|
B|----------------------|------------------------|---------------------------|
G|--0----0----2---------|----0----0----2---------|----0----2----3----2-------|
D|----------------------|------------------------|---------------------------|
A|----------------------|------------------------|---------------------------|
E|----------------------|------------------------|---------------------------|
    Sa - ku - ra.            Sa - ku - ra.           ya   yo    i    

     |    |    |    |         |    |    |    |         |    |    |    |
e|-----------------------|------------------------|--------------------------|
B|-----------------------|------------------------|--------------------------|
G|---0----2--p--0--------|------------------------|--------------------------|
D|------------------1----|----0---------0----1----|----0---------------------|
A|-----------------------|---------1--------------|---------5--p--1---0------|
E|-----------------------|------------------------|--------------------------|
     so   ra----    wa.       Mi   wa   ta   su        ka   gi-----  

     |    |    |    |         |    |    |    |         |    |    |    |
e|-----------------------|------------------------|--------------------------|
B|-----------------------|------------------------|--------------------------|
G|---0----2----3----2----|----0----2--p--0--------|--------------------------|
D|-----------------------|-------------------1----|----0---------0----1------|
A|-----------------------|------------------------|---------1----------------|
E|-----------------------|------------------------|--------------------------|
     Ka   su   mi   ka       ku    mo-----   ka        mi   o    i    

     |    |    |    |         |    |    |    |         |    |    |
e|-----------------------|------------------------|--------------------------|
B|-----------------------|------------------------|--------------------------|
G|-----------------------|----0----0----2---------|----0----0----2-----------|
D|---0-------------------|------------------------|--------------------------|
A|--------5--p--1---0----|------------------------|--------------------------|
E|-----------------------|------------------------|----------------------'---|
     i    zu-----   ru.       I    za   ya             i   za   ya 

  |    |    |    |         |    |    |    |        
e|-----------------------|------------------------|
B|-----------------------|------------------------|
G|-------------2p0-------|------------------------|
D|---0----1---------1----|----0-------------------|
A|-----------------------|------------------------|
E|-----------------------|------------------------|
    mi    ni   yu   ka        i


Translation:
Cherry blossoms, cherry blossoms, 
on meadow hills and dale
As far as you can see is it a mist or clouds
Fragrant in the morning sun 
Cherry blossoms, cherry blossoms 
flowers in full bloom
Cherry blossoms, cherry blossoms 
across the spring sky
As far as you can see is it mist or clouds
Fragrant in the air
Come now, come lets look at  


************************************

| |   indicates beat in measure
| p   Pull-off

************************************

            
            
Suggest correction
Creating personal tab
Creating personal tab
You can edit any tab online and save it as your Personal.

You can edit, replace or remove any tab part or add personal notes – all changes will be seen only by you.

Personal tabs can be accessed anytime from any device, even offline.
Learn more »
Give kudos to tab author, rate the tab!
1 2 3 4 5
comments
print report bad tab
guest
You may want to rate the tab now too:
select rating
Wanna post a correction for this tab? Suggest correction