Oops, an error
Loading. Please wait.

My Country Tis Of Thee tab

11,894 views 18 this week
1 commentread comment
1 2 3 4 5
x 5
add to favorites
×
Save as Personal and add changes to this tab that will be seen only by you. Learn more ›
×
You can save this tab as Personal to edit and correct it or add notes. All changes will be seen only by you. Learn more »
launch autoscroll
font size
0
reset
how to read this tab
guitar tuner
edit
Autoscroll
slow
fast
+/-
esc
set tempo
stop
Author
Difficulty
-------------------------------------------------------------------------------
        My Country Tis of Thee - Misc. Traditional
-------------------------------------------------------------------------------
Tabbed by: Andres (silvadolla)
Email: andres.ali@gmail.com

Tuning: EADGBE (standard)

This is the whole song, it repeats. Only play the C chord at the end
when you finish the song

e|-----------------------------------|
B|-1-1-3-0-1-3-5-5-6-5-3-1-3-1-0-1-8-|
G|-----------------------------------|
D|-----------------------------------|
A|-----------------------------------|
E|-----------------------------------|

                                                            C
e|------------------------------------0-1-3---5-1-0---------0-----------------|
B|--8-8-8p6p5-6-6-6-6p5p3--5-6-5-3-1------------------3-1---1-----------------|
G|----------------------------------------------------------0-----------------|
D|----------------------------------------------------------2-----------------|
A|----------------------------------------------------------3-----------------|
E|----------------------------------------------------------------------------|


I didn't see any tabs for this on UG, so I tabbed it out. It sounds perfectly fine. 
me if you think something else would sound better though.

            
            
Suggest correction
Creating personal tab
Creating personal tab
You can edit any tab online and save it as your Personal.

You can edit, replace or remove any tab part or add personal notes – all changes will be seen only by you.

Personal tabs can be accessed anytime from any device, even offline.
Learn more »
comments
print report bad tab
1 comment total.
0 reply
jewboy13z 10 Jan 22, 2009 05:14 AM

this song is in F major not C major
e--------------------------------
b--------------------------------
g--------------------------------
d--------------------------------
a--------------------------------
e-1-1-3-0-1-3-5-5-6-5-3-1-3-1-0-1-

guest
You may want to rate the tab now too:
select rating
Wanna post a correction for this tab? Suggest correction