Oops, an error
Loading. Please wait.

Oh Susanna tab

version 2
version 2

Whole song

Interactive

5,323 views 15 this week
1 commentread comment
1 2 3 4 5
x 4
add to favorites
×
Save as Personal and add changes to this tab that will be seen only by you. Learn more ›
×
You can save this tab as Personal to edit and correct it or add notes. All changes will be seen only by you. Learn more »
launch autoscroll
font size
0
reset
how to read this tab
guitar tuner
edit
Autoscroll
slow
fast
+/-
esc
set tempo
stop
Author
Tabbers playing skills
----------------------------------------------------------------------------
                                    Oh Susanna
----------------------------------------------------------------------------


Tabbed by: Dave S. 
Email: prime-prine@hotmail.com

Tuning: Standard



|-------5--5--|-7--5--------|-------------|-------------|-----|
|----7--------|-------7-----|-5--7--7--5--|----5--------|-----|
|-7-----------|----------7--|-------------|-7-----6-----|-7---|
|-------7-----|-7-----7-----|-7-----7-----|-7-----7-----|-----|
|----5--------|----5--------|----5--------|----------7--|-----|
|----------5--|----------5--|----------5--|----5--------|-----|


|----5--5--7--|-5-----------|-------------|-------------|
|-7-----------|----7-----5--|-7--7--5--5--|-------------|
|-------------|-------7-----|-------------|-7--------7--|
|----7-----7--|----7-----7--|----7--------|----7--------|
|-5-----------|-5-----------|-5--------7--|-5-----------|
|-------5-----|-------5-----|-------5-----|-------5-----|


|----5--5--7--|-5-----------|-------------|-------------|
|-7-----------|----7-----5--|-7--7--5-----|-5-----------|
|-------------|-------7-----|----------7--|----6-----7--|
|----7-----7--|----7-----7--|----7-----7--|----7--------|
|-5-----------|-5-----------|-5-----------|-------7-----|
|-------5-----|-------5-----|-------5-----|-5-----------|


|----5--5--7--|-5-----------|-------------|-------------|
|-7-----------|----7-----5--|-7--7--5--5--|-------------|
|-------------|-------7-----|-------------|-7-----------|
|----7-----7--|----7-----7--|----7--------|----7-----7--|
|-5-----------|-5-----------|-5--------7--|-5-----------|
|-------5-----|-------5-----|-------5-----|-------5-----|


|-3-----3-----|-7--7--------|-5--5--------|-------------|
|-------------|-------------|-------7-----|-5-----------|
|-------------|-------------|----------7--|----6-----7--|
|----5-----5--|----0-----0--|----7-----7--|----7--------|
|-------5-----|-------------|-5-----------|-------7-----|
|-3-----------|-3-----3-----|-------5-----|-5-----------|


|----5--5--7--|-5-----------|-------------|-------------|
|-7-----------|----7-----5--|-7--7--5--5--|-------------|
|-------------|-------7-----|-------------|-7-----------|
|----7-----7--|----7-----7--|----7-----7--|----7-----7--|
|-5-----------|-5-----------|-5-----------|-5-----------|
|-------5-----|-------5-----|-------5-----|-------5-----|


|-3-----3-----|-7--7--------|-5--5--------|-------------|
|-------------|-------------|-------7-----|-5-----------|
|-------------|-------------|----------7--|----6-----7--|
|----5-----5--|----0-----0--|----7-----7--|----7--------|
|-------5-----|-------------|-5-----------|-------7-----|
|-3-----------|-3-----3-----|-------5-----|-5-----------|


|----5--5--7--|-5-----------|-------------|--------|
|-7-----------|----7-----5--|-7--7--5--5--|--------|
|-------------|-------7-----|-------------|---7----|
|----7-----7--|----7-----7--|----7-----7--|---7----|
|-5-----------|-5-----------|-5-----------|---5----|
|-------5-----|-------5-----|-------5-----|---5----|


Just the Melody


|-------5--5--7--5--------------------------|
|----7--------------7-----5--7--7--5-----5--|
|-7--------------------7--------------7-----|
|-------------------------------------------|
|-------------------------------------------|
|-------------------------------------------|

|-------5--5--7--5--------------------------|
|----7--------------7-----5--7--7--5--5-----|
|-7--------------------7-----------------7--|
|-------------------------------------------|
|-------------------------------------------|
|-------------------------------------------|

|-----------7--7----5--5--------------------|
|-8----8------------------7-----5-----------|
|----------------------------7--------------|
|-------------------------------------------|
|-------------------------------------------|
|-------------------------------------------|

|-------5--5--7--5--------------------------|
|----7--------------7-----5--7--7--5--5-----|
|-7--------------------7-----------------7--|
|-------------------------------------------|
|-------------------------------------------|
|-------------------------------------------|


Chords

  D
I come from Alabama
                    A7
With my banjo on my knee
   D
Im going to Louisiana
             A7     D
My true love for to see


D
It rained all night
                                  A7
The day I left the weather it was dry
    D
The sun so hot I froze to death
D       A7       D
Susanna dont you cry


G
Oh Susanna
   D                A7
Oh dont you cry for me
      D
For I come from Alabama
        D     A7    D
With my banjo on my knee


| /  slide up
| \  slide down
| h  hammer-on
| p  pull-off
| ~  vibrato
| +  harmonic
| x  Mute note
===========================================================================

            
            
Suggest correction
Creating personal tab
Creating personal tab
You can edit any tab online and save it as your Personal.

You can edit, replace or remove any tab part or add personal notes – all changes will be seen only by you.

Personal tabs can be accessed anytime from any device, even offline.
Learn more »
comments
print report bad tab
1 comment total.
0 reply
StereoPony 152 Nov 04, 2014 03:57 PM

this is great! thank you :)

guest
You may want to rate the tab now too:
select rating
Wanna post a correction for this tab? Suggest correction