Oops, an error
Loading. Please wait.

Scarborough Fair tab

version 6
version 6
667 views 9 this week
no commentswrite comment
1 2 3 4 5
3 more votes to show rating
add to favorites
×
Save as Personal and add changes to this tab that will be seen only by you. Learn more ›
×
You can save this tab as Personal to edit and correct it or add notes. All changes will be seen only by you. Learn more »
launch autoscroll
font size
0
reset
how to read this tab
guitar tuner
edit
Autoscroll
slow
fast
+/-
esc
set tempo
stop
So here's my own arrangement of Scarborough fair. I recommend if you're a tenor or soprano and 
you want to sing along with the instrumental part put a capo on the 6th fret, if you're a baritone/bass or
 an alto you'll probably be fine with it as written
Standard tuning
Enjoy!

e|--------------|-0--------0---|--------------|-------------|
b|--------------|--------------|-0----1--0----|-------------|
g|-2--2---2-----|----2---------|----0---------|-2----2-2----|
d|---2--2---2---|---2-2-----2--|---0-------0--|-----2-2-2---|
a|-0------------|-0------------|--------------|-0-----------|
e|--------------|--------------|-3------------|-------------|

     
e|------0-----3-|-5----------3-|-0----2-------|-0-----------|
B|--------------|--------------|-----------3--|-------------|
G|--------------|--------------|----0----0---0|------2-2-2--|
D|--------------|--------------|------0-------|-----2-2-2---|
A|-0------------|------0-------|-3------------|-0-----------|
E|--------------|--------------|--------------|-------------|

e|---0--5--5--5-|-3-------0--0-|-0------------|-------------|
B|--------------|--------------|------3----1--|-0-----------|
G|-----------0--|------0-------|---0-----0---0|-----------0-|
D|--------------|--------------|--------------|-----0-------|
A|---------0----|-3------------|-3----2----0--|-------------|
E|--------------|--------------|--------------|-3-----------|

e|----------0---|--------------|--------------|-------------|
B|--------------|-3---------1--|-0------------|-------------|
G|-2--2---------|--------0-----|------2-----0-|-2--2-2-2----| 
D|---2-2------2-|------0-------|---0-----0----|---2-2-2-----|
A|-0------------|--------------|--------------|-0-----------|
E|--------------|-1------------|-3------------|-------------|
--------------------------------------------------------------



e|-------0-3-5--|----5---------|
B|-0-1-3--------|---5----------|
G|--------------|--5-----------|
D|--------------|--------------|
A|--------------|--------0-----|
E|--------------|--------------|
 
Lyrics
Are you going to Scarborough Fair?
Parsley, sage, rosemary, and thyme;
Remember me to one, who lives there,
For once she/he was a true love of mine.

Tell her to make me a cambric shirt,
Parsley, sage, rosemary, and thyme;
Without no hem nor needlework,
Then she shall be a true love of mine.

Tell her to wash it in yonder dry well,
Parsley, sage, rosemary, and thyme;
Where no water spings or rain ever fell,
And she shall be a true love of mine.

Tell her to dry it on yonder black thorn,
Parsley, sage, rosemary, and thyme;
Which never bore blossom since Adam was born,
Then she shall be a true love of mine.

If she tells me she can't, I'll reply.
Parsley, sage, rosemary and thyme
let me know at least, that she will try.
Then she'll be a true love of mine

Now he has asked me his questions three,
Parsley, sage, rosemary, and thyme;
I hope he'll answer as many for me
For then he'll be a true love of mine.

Tell him to buy me an acre of land,
Parsley, sage, rosemary, and thyme;
Betwixt the salt water and the sea sand,
Then he shall be a true love of mine.

Tell him to plough it with a ram's horn,
Parsley, sage, rosemary, and thyme;
And sow it all over with one pepper corn, 
Then he shall be a true love of mine.

Tell him to sheer't with a sickle of leather,
Parsley, sage, rosemary, and thyme;
And bind it all up with one peacock feather.
And he shall be a true love of mine.

Tell him to thrash it on yonder great wall,
Parsley, sage, rosemary, and thyme,
And never let one corn of it fall,
Then he shall be a true love of mine.

When he has done and finished his work.
Parsley, sage, rosemary, and thyme:
Oh, tell him to come and he'll have his shirt,
And he shall be a true love of mine.

Love imposes impossible tasks 
Parsley, sage, rosemary and thyme
though not more than any true heart can ask.
And I must know she/he’s a true love of mine

            
            
Suggest correction
Creating personal tab
Creating personal tab
You can edit any tab online and save it as your Personal.

You can edit, replace or remove any tab part or add personal notes – all changes will be seen only by you.

Personal tabs can be accessed anytime from any device, even offline.
Learn more »
Give kudos to tab author, rate the tab!
1 2 3 4 5
comments
print report bad tab
guest
You may want to rate the tab now too:
select rating
Wanna post a correction for this tab? Suggest correction