Oops, an error
Loading. Please wait.

The Parting Glass tab

version 1
version 1

Whole song

Interactive

4,600 views 129 this week
1 commentread comment
1 2 3 4 5
x 9
add to favorites
×
Save as Personal and add changes to this tab that will be seen only by you. Learn more ›
×
You can save this tab as Personal to edit and correct it or add notes. All changes will be seen only by you. Learn more »
launch autoscroll
font size
0
reset
how to read this tab
guitar tuner
edit
Autoscroll
slow
fast
+/-
esc
set tempo
stop
This is my first tab and is only a short one. It is The Parting Glass, this can be repeated over and over as 
the song does not have many changes. It can be played on any fret but I recommend **CAPO 8** as it sounds the
best when higher. 
I hope you enjoy and please rate it and comment any corrections you find.


e|---------------------------------------------------------------------------|
B|--0------------------------------------0----0-0-------0--------------------|
G|----2-0----------------0-0-2-------0h2----------2-0-2----------------------|
D|-----------2-2-0---0h2-------------------------------------0-0-------------|
A|---------------------------0-----------------------------------------------|
E|------3--------3-------3---------------3------3---3---3------3-------------|

e|---------------------------------------0-----------------------------------|
B|--0----------------------------------0---3p0----0--------------------------|
G|----2-0--------------0-0-2-------0h2----------2---0------------------------|
D|-----------2-0---0h2--------------------------------0-0--------------------|
A|-------------------------0-------------------------------------------------|
E|------3------3-------3---------------3-----3------3---3--------------------|

e|---------------------------------------------------------------------------|
B|--0--3p0--3h5-3----0-3p0--3h5-3----0-1----0-0----------0-------------------|
G|----------------------------------------------2----0h2---------------------|
D|-------------------------------------------------------------0-0-----------|
A|---------------------------------------------------------------------------|
E|--------------3---------------3------------------------3-------------------|

e|---------------------------------------0-----------------------------------|
B|--0----------------------------------0---3p0----0--------------------------|
G|----2-0--------------0-0-2-------0h2----------2---0-0-0--------------------|
D|-----------2-0---0h2-------------------------------------------------------|
A|-------------0-----------0-------------------------------------------------|
E|------3--------------3---------------3-----3------3---3--------------------|


************************************

| h  Hammer-on
| p  Pull-off

************************************

            
            
Suggest correction
Creating personal tab
Creating personal tab
You can edit any tab online and save it as your Personal.

You can edit, replace or remove any tab part or add personal notes – all changes will be seen only by you.

Personal tabs can be accessed anytime from any device, even offline.
Learn more »
comments
print report bad tab
1 comment total.
0 reply
ajmagill1 10 May 08, 2017 07:46 PM

Amazing tab, been looking for it for a long time and this is the only one I've found; plus it's really accurate!

guest
You may want to rate the tab now too:
select rating
Wanna post a correction for this tab? Suggest correction