Oops, an error
Loading. Please wait.

The Star-Spangled Banner tab

version 10
version 10

Whole song

53,443 views 30 this week
4 commentsread comments
1 2 3 4 5
x 31
add to favorites
×
Save as Personal and add changes to this tab that will be seen only by you. Learn more ›
×
You can save this tab as Personal to edit and correct it or add notes. All changes will be seen only by you. Learn more »
launch autoscroll
font size
0
reset
how to read this tab
guitar tuner
edit
Autoscroll
slow
fast
+/-
esc
set tempo
stop
Author
Difficulty
e|--0------0-5-9-7-5--------------9-7-5-4-2-4-5-5------------------------|
B|---2---2--------------2-4-5---5-------------------------5-2------------|
G|-----2-----------------------------------------------------------2-----|
D|-----------------------------------------------------------------------|
A|-----------------------------------------------------------------------|
E|-----------------------------------------------------------------------|

e|---9-9-9-10-12-12-10-9-7-9-10-10---9-7-5-4-2-4-5-5-----------------------|
B|----------------------------------------------------5-2------------------|
G|---------------------------------------------------------------2---------|
D|-------------------------------------------------------------------------|
A|-------------------------------------------------------------------------|
E|-------------------------------------------------------------------------|

e|-----------------------------8-7----------------|
B|------8-8-8-7---------10-------10-8-8-7---------|
G|---7------------9-9-9---------------------------|
D|------------------------------------------------|
A|------------------------------------------------|
E|------------------------------------------------|

e|---------------7-8-10--------7-8-------------|
B|---------8-10----------8-10------10-8--------|
G|---7-7---------------------------------------|
D|---------------------------------------------|
A|---------------------------------------------|
E|---------------------------------------------|

            
            
Suggest correction
Creating personal tab
Creating personal tab
You can edit any tab online and save it as your Personal.

You can edit, replace or remove any tab part or add personal notes – all changes will be seen only by you.

Personal tabs can be accessed anytime from any device, even offline.
Learn more »
comments
print report bad tab
4 comments total. Showing first comments.
+1 reply
wrr276 10 Sep 05, 2008 12:29 PM

its pretty close

+1 reply
RUSTDOGG666 110 Nov 17, 2008 03:47 PM

funny how the other version got a higher rating than this one and this one is more exact than the other one. there just might be two notes i disagree with here where on the other one there was like half the song i disagreed with.

0 reply
doggydawg31 10 Jan 01, 2009 02:21 PM

is it me or does this version not have an ending

guest
You may want to rate the tab now too:
select rating
Wanna post a correction for this tab? Suggest correction