Oops, an error
Loading. Please wait.

The Star-Spangled Banner tab

version 16
version 16

Whole song

25,210 views 27 this week
1 commentread comment
1 2 3 4 5
x 16
add to favorites
×
Save as Personal and add changes to this tab that will be seen only by you. Learn more ›
×
You can save this tab as Personal to edit and correct it or add notes. All changes will be seen only by you. Learn more »
launch autoscroll
font size
0
reset
how to read this tab
guitar tuner
edit
Autoscroll
slow
fast
+/-
esc
set tempo
stop
Author
x2 the first part right here
e|---0-------2-5---9-7-5-----------9-7-5-4-2-4-55-----|
B|-----2---2-------------2-4-5---5---------------5-2--|
G|-------2-------------------------------------------2|
D|----------------------------------------------------|
A|----------------------------------------------------|
E|----------------------------------------------------|

e|---999-10-1212--10-9-7-9-1010-10--9-7-5-4-2-4-5---------|
B|-----------------------------------------------2-4-5----|
G|--------------------------------------------------------|
D|--------------------------------------------------------|
A|--------------------------------------------------------|
E|--------------------------------------------------------|

e|-0--5-5-4--2-2-2-/7-9-10-9-7-5-4-00-5~--7-9-10-12---7-9--10~~---|
B|----------------------------------------------------------------|
G|----------------------------------------------------------------|
D|----------------------------------------------------------------|
A|----------------------------------------------------------------|
E|----------------------------------------------------------------|

         do the 5 as long as u want or keep strumming it it sounds good
e|-9--7~~5--~~~~----|
B|------------------|
G|------------------|
D|------------------|
A|------------------|
E|------------------|

************************************

| /  Slide up
| ~  Vibrato

************************************

            
            
Suggest correction
Creating personal tab
Creating personal tab
You can edit any tab online and save it as your Personal.

You can edit, replace or remove any tab part or add personal notes – all changes will be seen only by you.

Personal tabs can be accessed anytime from any device, even offline.
Learn more »
comments
print report bad tab
1 comment total.
+3 reply
travis3826 82 Mar 02, 2009 02:49 PM

At the very beginning this:
e|---0-------2-5-|
B|-----2---2-----|
G|-------2-------|
D|---------------|
A|---------------|
E|---------------|
should be this:
e|---0-------0-5-|
B|-----2---2-----|
G|-------2-------|
D|---------------|
A|---------------|
E|---------------|

at the end, this:
e|---00-5~--7-9-10-12---7-9--10~~---|
B|----------------------------------|
G|----------------------------------|
D|----------------------------------|
A|----------------------------------|
E|----------------------------------|

-9--7~~5--~~~~----|
------------------|
------------------|
------------------|
------------------|
------------------|

should be:

e|---00-5~--7-9-10-12~~---5-7-9~----|
B|----------------------------------|
G|----------------------------------|
D|----------------------------------|
A|----------------------------------|
E|----------------------------------|

-10--7~~--5~~~~---|
------------------|
------------------|
------------------|
------------------|
------------------|

guest
You may want to rate the tab now too:
select rating
Wanna post a correction for this tab? Suggest correction