Oops, an error
Loading. Please wait.

The Star-Spangled Banner tab

version 24
version 24

Whole song

17,322 views 15 this week
3 commentsread comments
1 2 3 4 5
x 16
add to favorites
×
Save as Personal and add changes to this tab that will be seen only by you. Learn more ›
×
You can save this tab as Personal to edit and correct it or add notes. All changes will be seen only by you. Learn more »
launch autoscroll
font size
0
reset
how to read this tab
guitar tuner
edit
Autoscroll
slow
fast
+/-
esc
set tempo
stop
Tuning: Standard.
Contact: kitttenishheree@gmail.com
Have fun :)



e|-----------6--10-8-6-------------10-8-6-5---5-6-6----------|
B|--6--3--3-6-----------3-5-6---6-6---------8---------6-3----|
G|------3-------------------------------------------------3--| x2
D|-----------------------------------------------------------|
A|-----------------------------------------------------------|
E|-----------------------------------------------------------|

e|--10-10-10-11-13-13--11-10-8-10-11-11-|
B|--------------------------------------|
G|--------------------------------------|
D|--------------------------------------|
A|--------------------------------------|
E|--------------------------------------|

e|--11-10--8-6-5--3-5-6-----------|
B|--------------------------3-5-6-|
G|--------------------------------|
D|--------------------------------|
A|--------------------------------|
E|--------------------------------|

e|---6-6-6-5------8-10-11-10-8-6-6-5-|
B|--6--------8-8-8-------------------|
G|-----------------------------------|
D|-----------------------------------|
A|-----------------------------------|
E|-----------------------------------|

e|-----6--8-10-11/13--6-8-10--11-8--6--|
B|--6-6--------------------------------|
G|-------------------------------------|
D|-------------------------------------|
A|-------------------------------------|
E|-------------------------------------|

            
            
Suggest correction
Creating personal tab
Creating personal tab
You can edit any tab online and save it as your Personal.

You can edit, replace or remove any tab part or add personal notes – all changes will be seen only by you.

Personal tabs can be accessed anytime from any device, even offline.
Learn more »
comments
print report bad tab
3 comments total.
+1 reply
Broken Words 22 Jul 04, 2014 10:51 AM

Instead of 466 on the high E in the first bar it should be 566.

-1 reply
denise-knab 15 May 28, 2015 03:54 AM

didn't like this contribution

0 reply
jhulsoor 10 May 09, 2017 11:03 PM

Should be 3 5 6 on B string, instead of 6 3 On B then 3 on G, on the 3rd line of notes

guest
Wanna post a correction for this tab? Suggest correction