Oops, an error
Loading. Please wait.

When Johnny Comes Marching Home bass

version 1
version 1

Whole song

Interactive

3,589 views 6 this week
1 commentread comment
1 2 3 4 5
1 last vote to show rating
add to favorites
×
Save as Personal and add changes to this tab that will be seen only by you. Learn more ›
×
You can save this tab as Personal to edit and correct it or add notes. All changes will be seen only by you. Learn more »
launch autoscroll
font size
0
reset
guitar tuner
edit
Autoscroll
slow
fast
+/-
esc
set tempo
stop
Here's "When Johnny Comes Marching Home," a traditional marching song.	
	
	G--------------------------------------2-2--2-22220-0000---------2-0------------
	D----------------3-3---------------3-33-3--0------------3-33-2--0----3-2--------
	A--------35-5-5-5-5-53--03-35-5-5-5-5------------------------------------5555-35
	
	rEPEAT AS MANY TIMES AS YOU WANT

--- Louann Bishop
--- bishopla@earthlink.net
--- EarthLink: It's your Internet.

            
            
Suggest correction
Creating personal tab
Creating personal tab
You can edit any tab online and save it as your Personal.

You can edit, replace or remove any tab part or add personal notes – all changes will be seen only by you.

Personal tabs can be accessed anytime from any device, even offline.
Learn more »
Give kudos to tab author, rate the tab!
1 2 3 4 5
comments
print report bad tab
1 comment total.
0 reply
Welverin 0 Nov 12, 2002 07:00 PM

G|-----------------------------------|
D|-----------2-3--2-3----------------|
A|--3--5-5-5-----------3--5--0--5----|
E|-----------------------------------|

G|---------------------0--2-----2----|
D|-----------2-3--2-3--------3-------|
A|--3--5-5-5-------------------------|
E|-----------------------------------|

G|--0-2--2-2-0---0--0-0-|
D|-------------3--------|
A|----------------------|
E|----------------------|

G|----------------------|
D|--2-3--3-3-2-0-2------|
A|------------------0---|
E|----------------------|

guest
Wanna post a correction for this tab? Suggest correction