Oops, an error
Loading. Please wait.

When The Saints Go Marching In tab

version 1
version 1
12,925 views 1 this week
8 commentsread comments
1 2 3 4 5
x 8
add to favorites
×
Save as Personal and add changes to this tab that will be seen only by you. Learn more ›
×
You can save this tab as Personal to edit and correct it or add notes. All changes will be seen only by you. Learn more »
launch autoscroll
font size
0
reset
how to read this tab
guitar tuner
edit
Autoscroll
slow
fast
+/-
esc
set tempo
stop
#---------------------------------PLEASE NOTE----------------------------------#
#This file is the author's own work and represents their interpretation of the #
#song. You may only use this file for private study, scholarship, or research. #
#------------------------------------------------------------------------------#
#------------Created with Taborama Tab Creator-----------------#
#------------------------------------------------------------------------------#

Title: When the Saints Go Marching In
Artist: Traditional

Tabbed by: Adam Lilly (ninjaadam44@yahoo.com)

Tuning: Standard (E A D G B E)

someone requested this, and it was in a book i have in standard notation, so i 
converted it to tab. E|----0-1-3-------|----0-1-3-------|----0-1-3---0---|----0-----------||
B|--1-------------|--1-------------|--1-------------|1-------3-------||
G|----------------|----------------|----------------|----------------||
D|----------------|----------------|----------------|----------------||
A|----------------|----------------|----------------|----------------||
E|----------------|----------------|----------------|----------------||

E|----0-----------|0---3-3-3---1---|----0-1-3---0---|------------------||
B|------3-1---1---|----------------|----------------|1---3---1---------||
G|----------------|----------------|----------------|------------------||
D|----------------|----------------|----------------|------------------||
A|----------------|----------------|----------------|------------------||
E|----------------|----------------|----------------|------------------||

            
            
Suggest correction
Creating personal tab
Creating personal tab
You can edit any tab online and save it as your Personal.

You can edit, replace or remove any tab part or add personal notes – all changes will be seen only by you.

Personal tabs can be accessed anytime from any device, even offline.
Learn more »
comments
print report bad tab
8 comments total. Showing first comments.
0 reply
Winters 30 Dec 11, 2005 04:09 AM

top line space is screwed up

0 reply
silvadolla 446 Oct 09, 2006 05:29 PM

i cant read it

+1 reply
bogglez 10 Feb 12, 2007 01:11 PM

E|----0-1-3-------|----0-1-3-------|----0-1-3---0---|----0-----------||
B|--1-------------|--1-------------|--1-------------|1-------3-------||
G|----------------|----------------|----------------|----------------||
D|----------------|----------------|----------------|----------------||
A|----------------|----------------|----------------|----------------||
E|----------------|----------------|----------------|----------------||

E|----0-----------|0---3-3-3---1---|----0-1-3---0---|------------------||
B|------3-1---1---|----------------|----------------|1---3---1---------||
G|----------------|----------------|----------------|------------------||
D|----------------|----------------|----------------|------------------||
A|----------------|----------------|----------------|------------------||
E|----------------|----------------|----------------|------------------||

guest
Wanna post a correction for this tab? Suggest correction