Oops, an error
Loading. Please wait.

331Erock - Moonlight Sonata 3Rd Movement tab

670 views 15 this week
no commentswrite comment
1 2 3 4 5
1 last vote to show rating
add to favorites
×
Save as Personal and add changes to this tab that will be seen only by you. Learn more ›
×
You can save this tab as Personal to edit and correct it or add notes. All changes will be seen only by you. Learn more »
launch autoscroll
font size
0
reset
how to read this tab
guitar tuner
edit
Autoscroll
slow
fast
+/-
esc
set tempo
stop
About this tab version
This tab is based on 331Erocks (eric calderone) meets metal video of Moonlight Sonata (3rd Movement) by beethoven. Was this info helpful? Yes No
-------------------------------------------------------------------------------------------
                      Moonlight Sonata (3rd Movement) - 331Erock
-------------------------------------------------------------------------------------------

Tuning: Drop A (AEADGBe)
Tabbed by: Bart Baart

For 7-string guitar
Originally by beethoven

[Verse One]
                          t        t        t          t                      t        t  t   t
e|----------------------|-------------------------|-------------------------|-------------17--17--|
B|----------------------|-------------------------|-------------15-------15-|-18----15-18---------|
G|----------------------|-------------------------|-14-------14-------14----|----14---------------|
D|----------------------|-------------15-------15-|-------15-------15-------|---------------------|
A|----------12-------12-|-17----12-17----12-17----|----17-------------------|---------------------|
E|--5/10-13----10-13----|----13-------------------|-------------------------|---------------------|
A|----------------------|-------------------------|-------------------------|---------------------|

          t      t        t      t       t      t      t        t      t   t
e|------------------|------------------|-----------9-----9-|-12---9-12-17--17--|
B|------------------|------------------|-------------------|-------------------|
G|------------------|-6------6-9---6-9-|-14-6-9-14---9-14--|----14-------------|
D|------------------|------------------|-------------------|-------------------|
A|----4-7-12-4-7-12-|---7-12-----12----|-------------------|-------------------|
E|--5---------------|------------------|-------------------|-------------------|
A|------------------|------------------|-------------------|-------------------|

            t       t          t        t          t        t        t          t        t   t
e|---------------------|-------------------------|-------------14-------14-|-17----14-17-22--22--|
B|---------------------|-------------------------|-------------------------|---------------------|
G|---------------------|-11-------11-14----11-14-|-19-11-14-19----14-19----|----19---------------|
D|---------------------|-------------------------|-------------------------|---------------------|
A|-----9-12-17-9-12-17-|----12-17-------17-------|-------------------------|---------------------|
E|--10-----------------|-------------------------|-------------------------|---------------------|
A|---------------------|-------------------------|-------------------------|---------------------|

             t  t          t  t        t   t              t  t          t  t        t   t
e|-----------------------|-------14-17-22--22--|----------------------|-------12-17-22--22--|
B|-----------------------|---------------------|----------------------|---------------------|
G|-----------------12-14-|-19-19---------------|----------------10-14-|-19-19---------------|
D|-----------------------|---------------------|----------------------|---------------------|
A|-----10-12-17-17-------|---------------------|-----8-12-17-17-------|---------------------|
E|--10-------------------|---------------------|--10------------------|---------------------|
A|-----------------------|---------------------|----------------------|---------------------|


[Verse Two]
         t    t    t      t     t     t     t      t     t     t     t       t     t    t    t
e|-----5-17-5-17-7-17-|-9-17-10-17-12-17-9-17-|-12-17-10-17-15-17-13-17-|-12-17-10-17-9-17-6-16-|
B|--------------------|-----------------------|-------------------------|-----------------------|
G|--------------------|-----------------------|-------------------------|-----------------------|
D|--------------------|-----------------------|-------------------------|-----------------------|
A|--------------------|-----------------------|-------------------------|-----------------------|
E|-9\-----------------|-----------------------|-------------------------|-----------------------|
A|--------------------|-----------------------|-------------------------|-----------------------|

     t    t    t    t      t     t     t    t       t     t     t     t       t     t    t    t
e|-5-17-5-17-5-17-7-17-|-9-17-10-17-12-17-9-17-|-12-17-10-17-15-17-13-17-|-12-17-10-17-9-17-6-16-|
B|---------------------|-----------------------|-------------------------|-----------------------|
G|---------------------|-----------------------|-------------------------|-----------------------|
D|---------------------|-----------------------|-------------------------|-----------------------|
A|---------------------|-----------------------|-------------------------|-----------------------|
E|---------------------|-----------------------|-------------------------|-----------------------|
A|---------------------|-----------------------|-------------------------|-----------------------|

     t    t    t    t      t    t    t    t      
e|-5-17-6-16-5-17-6-16-|-5-17-6-16-5-17-6-16-|-5---------|---------|
B|---------------------|---------------------|-----------|---------|
G|---------------------|---------------------|-----------|---------|
D|---------------------|---------------------|-----------|---------|
A|---------------------|---------------------|------0----|---------|
E|---------------------|---------------------|-----------|---------|
A|---------------------|---------------------|-----------|---------|


[Verse Three]
                          t        t        t          t                      t        t  t   t
e|----------------------|-------------------------|-------------------------|-------------17--17--|
B|----------------------|-------------------------|-------------15-------15-|-18----15-18---------|
G|----------------------|-------------------------|-14-------14-------14----|----14---------------|
D|----------------------|-------------15-------15-|-------15-------15-------|---------------------|
A|----------12-------12-|-17----12-17----12-17----|----17-------------------|---------------------|
E|--5/10-13----10-13----|----13-------------------|-------------------------|---------------------|
A|----------------------|-------------------------|-------------------------|---------------------|

           t       t         t        t          t        t        t          t        t   t
e|--------------------|------------------------|-------------13-------13-|-15----13-15-25--25--|
B|--------------------|------------------------|-------------------------|---------------------|
G|--------------------|-10------10-13----10-13-|-19-10-13-19----13-19----|----19---------------|
D|--------------------|------------------------|-------------------------|---------------------|
A|----8-11-17-8-11-17-|---11-17-------17-------|-------------------------|---------------------|
E|--8-----------------|------------------------|-------------------------|---------------------|
A|--------------------|------------------------|-------------------------|---------------------|

           t       t          t        t                      t        t    t        t        t  
e|--------------------|-------------------------|-12-------12-19----12-19-|-22-19-------19----------|
B|--------------------|-12-------12-15----12-15-|----12-15-------15-------|-------17-------17-------|
G|--------------------|-------------------------|-------------------------|----------19-------19-16-|
D|----9-12----9-12----|----12-------------------|-------------------------|-------------------------|
A|--9------19------19-|-------19-------19-------|-------------------------|-------------------------|
E|--------------------|-------------------------|-------------------------|-------------------------|
A|--------------------|-------------------------|-------------------------|-------------------------|


[Verse Four]

e|-------------|-------------|-------------|---------------|
B|-------17----|-------------|-------------|-------17------|
G|-17----------|-----17---14-|-14--13------|--13-------13--|
D|-------------|-------------|-------------|---------------|
A|-------------|-------------|-------------|---------------|
E|-------------|-------------|-------------|---------------|
A|-------------|-------------|-------------|---------------|

e|-------------|--------------|-------------|---------------|
B|-------------|------17------|-------------|-------17------|
G|-16----14----|--14-------14-|-17---16-----|---16-------16-|
D|-------------|--------------|-------------|---------------|
A|-------------|--------------|-------------|---------------|
E|-------------|--------------|-------------|---------------|
A|-------------|--------------|-------------|---------------|

e|---------------|---------------|---------------|---------------|
B|-----17----17--|---17----------|---------------|-------17------|
G|-17------------|-------17--14--|-14--13----13--|---13------13--|
D|---------------|---------------|---------------|---------------|
A|---------------|---------------|---------------|---------------|
E|---------------|---------------|---------------|---------------|
A|---------------|---------------|---------------|---------------|

e|---------------|---------------|---------------|---------------|
B|---------------|-------17------|---------------|-------17------|
G|-16--14----14--|---14------14--|-17--16----16--|---16------16--|
D|---------------|---------------|---------------|---------------|
A|---------------|---------------|---------------|---------------|
E|---------------|---------------|---------------|---------------|
A|---------------|---------------|---------------|---------------|


[Verse Five]

e|-----------|-----------|-------------------------|---------|
B|-14--------|-15--------|-12-13-12-13-12-10-12-13-|---------|
G|-----------|-----------|-------------------------|---------|
D|-----------|-----------|-------------------------|---------|
A|-----------|-----------|-------------------------|---------|
E|-----------|-----------|-------------------------|---------|
A|-----------|-----------|-------------------------|---------|

e|-----------|------------|-------------------------|---------|
B|-----------|------------|-------------------------|---------|
G|-15--------|-16---------|-14-15-14-15-14-12-14-15-|---------|
D|-----------|------------|-------------------------|---------|
A|-----------|------------|-------------------------|---------|
E|-----------|------------|-------------------------|---------|
A|-----------|------------|-------------------------|---------|


[Verse Six]

e|-----------|-----------------------|-------------------------|-------------------------|
B|-----------|-----------11-13-15-13-|-11----------11-13-15-13-|-11----------11-13-15-13-|
G|-----------|--10-12-14-------------|----10-12-14-------------|----10-12-14-------------|
D|-----------|-----------------------|-------------------------|-------------------------|
A|-15--------|-----------------------|-------------------------|-------------------------|
E|-----------|-----------------------|-------------------------|-------------------------|
A|-----------|-----------------------|-------------------------|-------------------------|

e|----------------------11-|-13-12-13-12-13----------|-----------|-------------------------------------------|
B|-11----------11-13-15----|----------------15-13-11-|-----------|-------------------------------------------|
G|----10-12-14-------------|-------------------------|-10--------|-12-13-12-13-12-13-12-13-12-13-12-13-12-13-|
D|-------------------------|-------------------------|-----------|-------------------------------------------|
A|-------------------------|-------------------------|-----------|-------------------------------------------|
E|-------------------------|-------------------------|-----------|-------------------------------------------|
A|-------------------------|-------------------------|-----------|-------------------------------------------|

                       t       t              t       t              t       t
e|------------|---------------------|----------------------|----------------------|
B|------------|---------------------|----------------------|----------------------|
G|-10---------|---------------------|----------------------|----------------------|
D|------------|----------8-10-12-10-|-8---------8-10-12-10-|-8---------8-10-12-10-|
A|-------15---|--8-10-12------------|---8-10-12------------|---8-10-12------------|
E|------------|---------------------|----------------------|----------------------|
A|------------|---------------------|----------------------|----------------------|

           t       t              t       t              t       t         t       t      
e|----------------------|----------------------|---------------------|---------------10-11-12-|
B|----------------------|----------------------|---------------------|-------9-11-13----------|
G|----------------------|----------------------|-------------------8-|-10-12------------------|
D|-8---------8-10-12-10-|-8---------8-10-12-10-|-8---------8-10-12---|------------------------|
A|---8-10-12------------|---8-10-12------------|---8-10-12-----------|------------------------|
E|----------------------|----------------------|---------------------|------------------------|
A|----------------------|----------------------|---------------------|------------------------|

e|-13--------|------------|-----------|----------|
B|-----------|-10---------|-13--------|-9--------|
G|-----------|------------|-----------|----------|
D|-----------|------------|-----------|----------|
A|-----------|------------|-----------|----------|
E|-----------|------------|-----------|----------|
A|-----------|------------|-----------|----------|


[Verse Seven]

e|-----------------|-----------------|-----------------|-----------------|
B|-----------------|-----------------|-12--12--12--12--|-12--12--12--11--|
G|-13--13--13--13--|-13--13--12--10--|-----------------|-----------------|
D|-----------------|-----------------|-----------------|-----------------|
A|-----------------|-----------------|-----------------|-----------------|
E|-----------------|-----------------|-----------------|-----------------|
A|-----------------|-----------------|-----------------|-----------------| Repeat 1X

e|---------------|---14--14--11---|---------------|---11--11------|
B|---12--12------|----------------|---12--12------|---------------|
G|-----------13--|----------------|-----------13--|-----------12--|
D|---------------|----------------|---------------|---------------|
A|---------------|----------------|---------------|---------------|
E|---------------|----------------|---------------|---------------|
A|---------------|----------------|---------------|---------------|

e|-----------------|----------------|-----------------|-----------------|
B|-----------------|----------------|-13--13--13--13--|-13--13--12--10--|
G|-13--13--13--13--|-13--12--10--9--|-----------------|-----------------|
D|-----------------|----------------|-----------------|-----------------|
A|-----------------|----------------|-----------------|-----------------|
E|-----------------|----------------|-----------------|-----------------| 
A|-----------------|----------------|-----------------|-----------------| Repeat 1X

e|-----------12--|-----------13--|-----------12--|---------12----|
B|---------------|---10--10------|---------------|---12-12-------|
G|---13--13------|---------------|---13--13------|---------------|
D|---------------|---------------|---------------|---------------|
A|---------------|---------------|---------------|---------------|
E|---------------|---------------|---------------|---------------|
A|---------------|---------------|---------------|---------------|

e|-----------13--|-----------11--|---------------|---------------|
B|---14--14------|---12--12------|---10--10--13--|-9--9--12--10~-|
G|---------------|---------------|---------------|---------------|
D|---------------|---------------|---------------|---------------|
A|---------------|---------------|---------------|---------------|
E|---------------|---------------|---------------|---------------|
A|---------------|---------------|---------------|---------------|


[Verse Eight]

e|------------|-----------|-------------|----------|
B|------------|-----------|-------------|----------|
G|------------|------9----|-9----9----5-|-9--------|
D|-----10---7-|-6----6----|-6----6--7---|----------|
A|------------|-----------|-------------|----------|
E|------------|-----------|-------------|----------|
A|------------|-----------|-------------|----------|

e|-------------|------12----|-12----12--19-h21-|-h24---------8-|
B|-----13---10-|------------|------------------|----------10---|
G|-------------|-11---11----|-11----11---------|---------------|
D|-------------|------------|------------------|---------------|
A|-------------|------------|------------------|---------------|
E|-------------|------------|------------------|---------------|
A|-------------|------------|------------------|---------------|

e|-h12-----19-h21-|-h24---------8-|-h12--------|---------|
B|----------------|----------10---|------------|---------|
G|----------------|---------------|------------|---------|
D|----------------|---------------|------------|---------|
A|----------------|---------------|------------|---------|
E|----------------|---------------|------------|---------|
A|----------------|---------------|------------|---------|


[Verse Nine]

     t    t    t    t      t    t    t    t      t    t    t    t      t    t    t    t
e|---------------------|---------------------|---------------------|---------------------|
B|---------------------|---------------------|---------------------|---------------------|
G|-5-14-9-14-5-14-9-14-|-5-14-9-14-5-14-9-14-|-6-12-9-12-6-12-9-12-|-6-12-9-12-6-12-9-12-|
D|---------------------|---------------------|---------------------|---------------------|
A|---------------------|---------------------|---------------------|---------------------|
E|---------------------|---------------------|---------------------|---------------------|
A|---------------------|---------------------|---------------------|---------------------|


[Break]


[Verse One]
                          t        t        t          t                      t        t  t   t
e|----------------------|-------------------------|-------------------------|-------------17--17--|
B|----------------------|-------------------------|-------------15-------15-|-18----15-18---------|
G|----------------------|-------------------------|-14-------14-------14----|----14---------------|
D|----------------------|-------------15-------15-|-------15-------15-------|---------------------|
A|----------12-------12-|-17----12-17----12-17----|----17-------------------|---------------------|
E|--5/10-13----10-13----|----13-------------------|-------------------------|---------------------|
A|----------------------|-------------------------|-------------------------|---------------------|

          t      t        t      t       t      t      t        t      t   t
e|------------------|------------------|-----------9-----9-|-12---9-12-17--17--|
B|------------------|------------------|-------------------|-------------------|
G|------------------|-6------6-9---6-9-|-14-6-9-14---9-14--|----14-------------|
D|------------------|------------------|-------------------|-------------------|
A|----4-7-12-4-7-12-|---7-12-----12----|-------------------|-------------------|
E|--5---------------|------------------|-------------------|-------------------|
A|------------------|------------------|-------------------|-------------------|

            t       t          t        t          t        t        t          t        t   t
e|---------------------|-------------------------|-------------14-------14-|-17----14-17-22--22--|
B|---------------------|-------------------------|-------------------------|---------------------|
G|---------------------|-11-------11-14----11-14-|-19-11-14-19----14-19----|----19---------------|
D|---------------------|-------------------------|-------------------------|---------------------|
A|-----9-12-17-9-12-17-|----12-17-------17-------|-------------------------|---------------------|
E|--10-----------------|-------------------------|-------------------------|---------------------|
A|---------------------|-------------------------|-------------------------|---------------------|

             t  t          t  t        t   t              t  t          t  t        t   t
e|-----------------------|-------14-17-22--22--|----------------------|-------12-17-22--22--|
B|-----------------------|---------------------|----------------------|---------------------|
G|-----------------12-14-|-19-19---------------|----------------10-14-|-19-19---------------|
D|-----------------------|---------------------|----------------------|---------------------|
A|-----10-12-17-17-------|---------------------|-----8-12-17-17-------|---------------------|
E|--10-------------------|---------------------|--10------------------|---------------------|
A|-----------------------|---------------------|----------------------|---------------------|


[Verse Two]
         t    t    t      t     t     t     t      t     t     t     t       t     t    t    t
e|-----5-17-5-17-7-17-|-9-17-10-17-12-17-9-17-|-12-17-10-17-15-17-13-17-|-12-17-10-17-9-17-6-16-|
B|--------------------|-----------------------|-------------------------|-----------------------|
G|--------------------|-----------------------|-------------------------|-----------------------|
D|--------------------|-----------------------|-------------------------|-----------------------|
A|--------------------|-----------------------|-------------------------|-----------------------|
E|-9\-----------------|-----------------------|-------------------------|-----------------------|
A|--------------------|-----------------------|-------------------------|-----------------------|

     t    t    t    t      t     t     t    t       t     t     t     t       t     t    t    t
e|-5-17-5-17-5-17-7-17-|-9-17-10-17-12-17-9-17-|-12-17-10-17-15-17-13-17-|-12-17-10-17-9-17-6-16-|
B|---------------------|-----------------------|-------------------------|-----------------------|
G|---------------------|-----------------------|-------------------------|-----------------------|
D|---------------------|-----------------------|-------------------------|-----------------------|
A|---------------------|-----------------------|-------------------------|-----------------------|
E|---------------------|-----------------------|-------------------------|-----------------------|
A|---------------------|-----------------------|-------------------------|-----------------------|

     t    t    t    t      t    t    t    t      
e|-5-17-6-16-5-17-6-16-|-5-17-6-16-5-17-6-16-|
B|---------------------|---------------------|
G|---------------------|---------------------|
D|---------------------|---------------------|
A|---------------------|---------------------|
E|---------------------|---------------------|
A|---------------------|---------------------|


[Verse One]
            t       t          t        t          t        t        t          t        t   t
e|---------------------|-------------------------|-------------14-------14-|-17----14-17-22--22--|
B|---------------------|-------------------------|-------------------------|---------------------|
G|---------------------|-11-------11-14----11-14-|-19-11-14-19----14-19----|----19---------------|
D|---------------------|-------------------------|-------------------------|---------------------|
A|-----9-12-17-9-12-17-|----12-17-------17-------|-------------------------|---------------------|
E|--10-----------------|-------------------------|-------------------------|---------------------|
A|---------------------|-------------------------|-------------------------|---------------------| Repeat 1X

             t  t          t  t        t   t              t  t          t  t        t   t
e|-----------------------|-------14-17-22--22--|----------------------|-------12-17-22--22--|
B|-----------------------|---------------------|----------------------|---------------------|
G|-----------------12-14-|-19-19---------------|----------------10-14-|-19-19---------------|
D|-----------------------|---------------------|----------------------|---------------------|
A|-----10-12-17-17-------|---------------------|-----8-12-17-17-------|---------------------|
E|--10-------------------|---------------------|--10------------------|---------------------|
A|-----------------------|---------------------|----------------------|---------------------|


[Verse Four]

e|-----------|-------------|-------------|---------------|
B|-----------|-------------|-------------|---------------|
G|-----15----|-----11------|-------------|------15-------|
D|-----------|----------13-|-13--12------|--12-------12--|
A|-----------|-------------|-------------|---------------|
E|-----------|-------------|-------------|---------------|
A|-----------|-------------|-------------|---------------|

e|-------------|--------------|
B|-------------|------15------|
G|-15----13----|--13-------13-|
D|-------------|--------------|
A|-------------|--------------|
E|-------------|--------------|
A|-------------|--------------|


[Verse Ten]
      t     t     t     t       t     t     t     t
e|-------------------------|-------------------------|
B|-------------------------|-------------------------|
G|-12-19-15-19-12-19-15-19-|-12-19-15-19-12-19-15-19-|
D|-------------------------|-------------------------|
A|-------------------------|-------------------------|
E|-------------------------|-------------------------|
A|-------------------------|-------------------------|

      t     t     t     t       t     t     t     t
e|-------------------------|-------------------------|
B|-------------------------|-------------------------|
G|-14-19-17-19-14-19-17-19-|-14-19-17-19-14-19-17-19-|
D|-------------------------|-------------------------|
A|-------------------------|-------------------------|
E|-------------------------|-------------------------|
A|-------------------------|-------------------------|

      t     t     t     t       t     t     t     t
e|-------------------------|-------------------------|
B|-------------------------|-------------------------|
G|-12-19-15-19-12-19-15-19-|-12-19-15-19-12-19-15-19-|
D|-------------------------|-------------------------|
A|-------------------------|-------------------------|
E|-------------------------|-------------------------|
A|-------------------------|-------------------------|

      t     t     t     t       t     t     t     t
e|-------------------------|-------------------------|
B|-------------------------|-------------------------|
G|-12-20-15-20-12-20-15-20-|-15-20-18-20-15-20-18-20-|
D|-------------------------|-------------------------|
A|-------------------------|-------------------------|
E|-------------------------|-------------------------|
A|-------------------------|-------------------------|

      t     t     t     t       t     t     t     t
e|-------------------------|-------------------------|
B|-------------------------|-------------------------|
G|-13-20-17-20-13-20-17-20-|-13-20-17-20-13-20-17-20-|
D|-------------------------|-------------------------|
A|-------------------------|-------------------------|
E|-------------------------|-------------------------|
A|-------------------------|-------------------------|

      t     t     t     t       t     t     t     t
e|-------------------------|-------------------------|
B|-------------------------|-------------------------|
G|-15-20-18-20-15-20-18-20-|-15-20-18-20-15-20-18-20-|
D|-------------------------|-------------------------|
A|-------------------------|-------------------------|
E|-------------------------|-------------------------|
A|-------------------------|-------------------------|

      t     t     t     t       t     t     t     t
e|-------------------------|-------------------------|
B|-------------------------|-------------------------|
G|-13-20-17-20-13-20-17-20-|-13-20-17-20-13-20-17-20-|
D|-------------------------|-------------------------|
A|-------------------------|-------------------------|
E|-------------------------|-------------------------|
A|-------------------------|-------------------------|

      t     t     t     t       t     t     t     t
e|-------------------------|-------------------------|
B|-------------------------|-------------------------|
G|-14-19-17-19-14-19-17-19-|-14-19-17-19-14-19-17-19-|
D|-------------------------|-------------------------|
A|-------------------------|-------------------------|
E|-------------------------|-------------------------|
A|-------------------------|-------------------------|

      t     t     t     t       t     t     t     t
e|-------------------------|-------------------------|
B|-------------------------|-------------------------|
G|-12-19-15-19-12-19-15-19-|-12-24-15-24-12-24-15-24-|
D|-------------------------|-------------------------|
A|-------------------------|-------------------------|
E|-------------------------|-------------------------|
A|-------------------------|-------------------------|

      t     t     t     t       t     t     t     t
e|-------------------------|-------------------------|
B|-------------------------|-------------------------|
G|-12-24-14-24-12-24-14-19-|-12-24-14-24-12-24-14-24-|
D|-------------------------|-------------------------|
A|-------------------------|-------------------------|
E|-------------------------|-------------------------|
A|-------------------------|-------------------------|

      t     t     t     t       t     t     t     t
e|-------------------------|-------------------------|
B|-------------------------|-------------------------|
G|-10-22-10-19-10-22-10-19-|-10-22-10-19-10-22-10-19-|
D|-------------------------|-------------------------|
A|-------------------------|-------------------------|
E|-------------------------|-------------------------|
A|-------------------------|-------------------------|

     t    t    t    t      t    t    t    t
e|---------------------|---------------------|
B|---------------------|---------------------|
G|-9-22-9-19-9-22-9-19-|-9-22-9-19-9-22-9-19-|
D|---------------------|---------------------|
A|---------------------|---------------------|
E|---------------------|---------------------|
A|-------------------------|-------------------------|


[Verse Eleven]

e|----------------|----------------|---------------|-------------|
B|----------------|----------------|---------------|-------------|
G|-/14------15-14-|-12-------14-12-|-10------12-10-|-9------10-9-|
D|----------------|----------------|---------------|-------------|
A|----------------|----------------|---------------|-------------|
E|----------------|----------------|---------------|-------------|
A|----------------|----------------|---------------|-------------|

e|------------|-----------|----------|----------|
B|------------|-----------|----------|----------|
G|-7------9-7-|-6---------|-7--------|-9--------|
D|------------|-----------|----------|----------|
A|------------|-----------|----------|----------|
E|------------|-----------|----------|----------|
A|------------|-----------|----------|----------|

e|-----------------|-----------------|-----------------|-----------------|
B|-17--18--17--15--|-15--17--15--13--|-13--15--13--12--|-12--13--12--10--|
G|-----------------|-----------------|-----------------|-----------------|
D|-----------------|-----------------|-----------------|-----------------|
A|-----------------|-----------------|-----------------|-----------------|
E|-----------------|-----------------|-----------------|-----------------|
A|-----------------|-----------------|-----------------|-----------------|

e|----------------|------------|-----------|-----------|
B|-10--12--10--9--|--------10--|-------12~-|-------10--|
G|----------------|------------|-----------|-----------|
D|----------------|------------|-----------|-----------|
A|----------------|------------|-----------|-----------|
E|----------------|------------|-----------|-----------|
A|----------------|------------|-----------|-----------|

e|---------------|---------------|-------------------------|-------------------------|
B|-9--9--10--10--|-12~--------15-|----14----14----15----15-|----17----17----15----15-|
G|---------------|---------------|-------------------------|-------------------------|
D|---------------|---------12----|-11----11----12----12----|-14----14----12----12----|
A|---------------|---------------|-------------------------|-------------------------|
E|---------------|---------------|-------------------------|-------------------------|
A|---------------|---------------|-------------------------|-------------------------|

e|-----------|-----------|
B|-----------|-----------|
G|-----------|-----------|
D|-----------|-----------|
A|-13~-------|-12~-------|
E|-----------|-----------|
A|-----------|-----------|


[Verse One]
                          t        t        t          t                      t        t  t   t
e|----------------------|-------------------------|-------------------------|-------------17--17--|
B|----------------------|-------------------------|-------------15-------15-|-18----15-18---------|
G|----------------------|-------------------------|-14-------14-------14----|----14---------------|
D|----------------------|-------------15-------15-|-------15-------15-------|---------------------|
A|----------12-------12-|-17----12-17----12-17----|----17-------------------|---------------------|
E|--5/10-13----10-13----|----13-------------------|-------------------------|---------------------|
A|----------------------|-------------------------|-------------------------|---------------------|

          t      t        t      t       t      t      t        t      t   t
e|------------------|------------------|-----------9-----9-|-12---9-12-17--17--|
B|------------------|------------------|-------------------|-------------------|
G|------------------|-6------6-9---6-9-|-14-6-9-14---9-14--|----14-------------|
D|------------------|------------------|-------------------|-------------------|
A|----4-7-12-4-7-12-|---7-12-----12----|-------------------|-------------------|
E|--5---------------|------------------|-------------------|-------------------|
A|------------------|------------------|-------------------|-------------------|

            t       t          t        t          t        t        t          t        t   t
e|---------------------|-------------------------|-------------14-------14-|-17----14-17-22--22--|
B|---------------------|-------------------------|-------------------------|---------------------|
G|---------------------|-11-------11-14----11-14-|-19-11-14-19----14-19----|----19---------------|
D|---------------------|-------------------------|-------------------------|---------------------|
A|-----9-12-17-9-12-17-|----12-17-------17-------|-------------------------|---------------------|
E|--10-----------------|-------------------------|-------------------------|---------------------|
A|---------------------|-------------------------|-------------------------|---------------------|

             t  t          t  t        t   t              t  t          t  t        t   t
e|-----------------------|-------14-17-22--22--|----------------------|-------12-17-22--22--|
B|-----------------------|---------------------|----------------------|---------------------|
G|-----------------12-14-|-19-19---------------|----------------10-14-|-19-19---------------|
D|-----------------------|---------------------|----------------------|---------------------|
A|-----10-12-17-17-------|---------------------|-----8-12-17-17-------|---------------------|
E|--10-------------------|---------------------|--10------------------|---------------------|
A|-----------------------|---------------------|----------------------|---------------------|


[Verse Two]
         t    t    t      t     t     t     t      t     t     t     t       t     t    t    t
e|-----5-17-5-17-7-17-|-9-17-10-17-12-17-9-17-|-12-17-10-17-15-17-13-17-|-12-17-10-17-9-17-6-16-|
B|--------------------|-----------------------|-------------------------|-----------------------|
G|--------------------|-----------------------|-------------------------|-----------------------|
D|--------------------|-----------------------|-------------------------|-----------------------|
A|--------------------|-----------------------|-------------------------|-----------------------|
E|-9\-----------------|-----------------------|-------------------------|-----------------------|
A|--------------------|-----------------------|-------------------------|-----------------------|

     t    t    t    t      t     t     t    t       t     t     t     t       t     t    t    t
e|-5-17-5-17-5-17-7-17-|-9-17-10-17-12-17-9-17-|-12-17-10-17-15-17-13-17-|-12-17-10-17-9-17-6-16-|
B|---------------------|-----------------------|-------------------------|-----------------------|
G|---------------------|-----------------------|-------------------------|-----------------------|
D|---------------------|-----------------------|-------------------------|-----------------------|
A|---------------------|-----------------------|-------------------------|-----------------------|
E|---------------------|-----------------------|-------------------------|-----------------------|
A|---------------------|-----------------------|-------------------------|-----------------------|

     t    t    t    t      t    t    t    t      
e|-5-17-6-16-5-17-6-16-|-5-17-6-16-5-17-6-16-|-5---------|---------|
B|---------------------|---------------------|-----------|---------|
G|---------------------|---------------------|-----------|---------|
D|---------------------|---------------------|-----------|---------|
A|---------------------|---------------------|------0----|---------|
E|---------------------|---------------------|-----------|---------|
A|---------------------|---------------------|-----------|---------|


[Verse Four]

e|---------------|-----------------|------------13-----|-----15--15--15--|
B|-15------------|-----14--14--14--|----10-14-------14-|-13--------------|
G|--------15--12-|-11--------------|-10----------------|-----------------|
D|---------------|-----------------|-------------------|-----------------|
A|---------------|-----------------|-------------------|-----------------|
E|---------------|-----------------|-------------------|-----------------|
A|---------------|-----------------|-------------------|-----------------|

e|----13-15-----13-15--|----13-15-----13-15--|
B|-15--------14--------|-15--------14--------|
G|---------------------|---------------------|
D|---------------------|---------------------|
A|---------------------|---------------------|
E|---------------------|---------------------|
A|---------------------|---------------------|

e|----10-13-10----10-13-10-|----10-13-10----10-13-10-|----10-14-10----10-14-10-|----10-14-10----10-14-10-|
B|-10----------10----------|-10----------10----------|-10----------10----------|-10----------10----------|
G|-------------------------|-------------------------|-------------------------|-------------------------|
D|-------------------------|-------------------------|-------------------------|-------------------------|
A|-------------------------|-------------------------|-------------------------|-------------------------|
E|-------------------------|-------------------------|-------------------------|-------------------------|
A|-------------------------|-------------------------|-------------------------|-------------------------|

e|----------------------------10-12-13-15-|-13-12-10-------------------------|
B|-------------------------12-------------|----------12-10-------------------|
G|-------------------12-15----------------|----------------12-14/15\14-12-10-|
D|-------------12-15----------------------|----------------------------------|
A|-------10-17----------------------------|----------------------------------|
E|-10-18----------------------------------|----------------------------------|
A|----------------------------------------|----------------------------------|


[Verse One]
                          t        t        t          t                      t        t  t   t
e|----------------------|-------------------------|-------------------------|-------------17--17--|
B|----------------------|-------------------------|-------------15-------15-|-18----15-18---------|
G|----------------------|-------------------------|-14-------14-------14----|----14---------------|
D|----------------------|-------------15-------15-|-------15-------15-------|---------------------|
A|----------12-------12-|-17----12-17----12-17----|----17-------------------|---------------------|
E|--5/10-13----10-13----|----13-------------------|-------------------------|---------------------|
A|----------------------|-------------------------|-------------------------|---------------------|

e|----------|-----------|----22----|---------|
B|----------|----13-----|----21----|---------|
G|----13----|----12-----|----19----|---------|
D|----12----|----12-----|----------|---------|
A|----------|-----------|----------|---------|
E|----------|-----------|----------|---------|
A|----------|-----------|----------|---------|

e|---------|----------|----------------|---------|
B|---------|----------|-------12-17~---|---------|
G|---------|----------|-14-15----------|---------|
D|---------|----7-----|----------------|---------|
A|----8----|----0-----|----------------|---------|
E|----7----|----------|----------------|---------|
A|---------|----------|----------------|---------|


[Verse Twelve]
   t    t     t    t       t    t     t    t       t    t     t    t       t    t     t    t  
e|-----------------------|-----------------------|-----------------------|-----------------------|
B|-----------------------|-----------------------|-----------------------|-----------------------|
G|-14-7-14-10-14-7-14-10-|-14-7-14-10-14-7-14-10-|-14-9-14-12-14-9-14-12-|-14-9-14-12-14-9-14-12-|
D|-----------------------|-----------------------|-----------------------|-----------------------|
A|-----------------------|-----------------------|-----------------------|-----------------------|
E|-----------------------|-----------------------|-----------------------|-----------------------| Repeat 1X
A|-----------------------|-----------------------|-----------------------|-----------------------|


[Verse Four]

e|------------------|-------------------------|-------------------------|-------------------------|
B|------------------|-------------------------|-------------------------|-------------------------|
G|---14-14-14-14-14-|-14-14-14-14-------------|-------------------------|-------------14-14-------|
D|------------------|-------------15-15-12-12-|-12-12-11-11-11-11-11-11-|-11-11-11-11-------11-11-|
A|------------------|-------------------------|-------------------------|-------------------------|
E|------------------|-------------------------|-------------------------|-------------------------|
A|------------------|-------------------------|-------------------------|-------------------------|

e|-------------------------|-------------------------|-------------------------|-------------------------|
B|-------------------------|-------------------------|-------------------------|-------------------------|
G|-------------------------|-------------14-14-------|-------------------------|-------------15-15-------|
D|-14-14-12-12-12-12-12-12-|-12-12-12-12-------12-12-|-15-15-14-14-14-14-14-14-|-14-14-14-14-------14-14-|
A|-------------------------|-------------------------|-------------------------|-------------------------|
E|-------------------------|-------------------------|-------------------------|-------------------------|
A|-------------------------|-------------------------|-------------------------|-------------------------|


[Verse Thirteen]

e|-15-13----13-15-13----13-|-17-15----15-18-17-15-18-|
B|-------15----------15----|-------18----------------|
G|-------------------------|-------------------------|
D|-------------------------|-------------------------|
A|-------------------------|-------------------------|
E|-------------------------|-------------------------|
A|-------------------------|-------------------------|

e|-15-10----------10/6--10-|-6------6-10-6---|------------------|------------------|
B|-------11----11----------|---8---8-------8-|-7----------------|--------------7---|
G|----------12-------------|-----7-----------|---8--------------|------------8---8-|
D|-------------------------|-----------------|-----10-7---------|-------7-10-------|
A|-------------------------|-----------------|----------9-7-----|---7-9------------|
E|-------------------------|-----------------|--------------9-5-|-9----------------|
A|-------------------------|-----------------|------------------|------------------|

e|-15-10----------10/6--10-|-6------6-10-6---|------------------|------------------|
B|-------11----11----------|---8---8-------8-|-7----------------|--------------7---|
G|----------12-------------|-----7-----------|---8--------------|------------8---8-|
D|-------------------------|-----------------|-----10-7---------|-------7-10-------|
A|-------------------------|-----------------|----------9-7-----|---7-9------------|
E|-------------------------|-----------------|--------------9-5-|-9----------------|
A|-------------------------|-----------------|------------------|------------------|

e|-18-15----------15--17-|-11-----------11-10-6---|------------------|------------------|
B|-------16----16--------|----12----12----------8-|------------------|--------------7---|
G|----------15-----------|-------13---------------|-7----------------|------------8---8-|
D|-----------------------|------------------------|---8-10-7---------|-------7-10-------|
A|-----------------------|------------------------|----------9-7-----|---7-9------------|
E|-----------------------|------------------------|--------------9-5-|-9----------------|
A|-----------------------|------------------------|------------------|------------------|

e|-22-22-22-22-22-22-22-22-|-19-19-19-19-19-19-19-19-|-16-16-16-16-16-16-16-16-|-13-13-13-13-13-13-13-13-|
B|-------------------------|-------------------------|-------------------------|-------------------------|
G|-------------------------|-------------------------|-------------------------|-------------------------|
D|-------------------------|-------------------------|-------------------------|-------------------------|
A|-------------------------|-------------------------|-------------------------|-------------------------|
E|-------------------------|-------------------------|-------------------------|-------------------------|
A|-------------------------|-------------------------|-------------------------|-------------------------|

e|-11-12-13-12-11-12-13-12-|-13-15-16-15-13-15-16-15-|-16-18-19-18-16-18-19-18-|-19-21-22-21-19-21-22-21-|
B|-------------------------|-------------------------|-------------------------|-------------------------|
G|-------------------------|-------------------------|-------------------------|-------------------------|
D|-------------------------|-------------------------|-------------------------|-------------------------|
A|-------------------------|-------------------------|-------------------------|-------------------------|
E|-------------------------|-------------------------|-------------------------|-------------------------|
A|-------------------------|-------------------------|-------------------------|-------------------------|

                                                  t       t     t     t           t
e|-21-17----------17----17-|-13----------13-17-13-18-|--------------------------|-----------|
B|-------18----18----18----|----14----14-------------|-14-18--------------------|-----------|
G|----------19-------------|-------15----------------|-------15-18--------------|-----------|
D|-------------------------|-------------------------|-------------14-17/18-----|-----------|
A|-------------------------|-------------------------|-----------------------14-|-17--------|
E|-------------------------|-------------------------|--------------------------|-----------|
A|-------------------------|-------------------------|--------------------------|-----------|

                                                                                       t     t     t 
e|-------------------------|-------------------------|-------------------------|-11/18-20-18-20-18-20-18-|
B|-------------------------|-------------------------|-------------11-12-13-15-|-------------------------|
G|-------------------------|-------------------------|-10-11-12-13-------------|-------------------------|
D|-------------------------|-------------10-11-12-13-|-------------------------|-------------------------|
A|-------------------------|-10-11-12-13-------------|-------------------------|-------------------------|
E|-------------10-11-12-13-|-------------------------|-------------------------|-------------------------|
A|-10-11-12-13-------------|-------------------------|-------------------------|-------------------------|


e|-17-15-------17----------|-------------------------|-----------------|-----------|
B|-------18-17----18-17-15-|-------------------------|-----------------|-----------|
G|-------------------------|-15-14-12----12----------|-----------------|-----------|
D|-------------------------|----------15----15-14-12-|-----------------|-----------|
A|-------------------------|-------------------------|-13--12--10------|-----------|
E|-------------------------|-------------------------|-------------12--|-6----5----|

e|---------|----------|
B|---------|----------|
G|---------|----------|
D|---------|----------|
A|---------|----------|
E|-4-------|-5--------|
A|---------|----------|

[Break]


[Verse Eight]

e|------------|------------|---------------|----13-17------|
B|------------|------------|---------------|-13------------|
G|------------|------------|----10-14------|---------------|
D|------------|---3-7------|-10------------|---------------|
A|------------|-3----------|---------------|---------------|
E|---1-5------|------------|---------------|---------------|
A|-3----------|------------|---------------|---------------|
A|------------|------------|---------------|---------------|

e|-14-13-11-13-14-13-11-13-|-------------------------|-------------------------|-------------------------|
B|-------------------------|-14-12-11-12-14-12-11-12-|-------------------------|-------------------------|
G|-------------------------|-------------------------|-13-12-10-12-13-12-10-12-|-------------------------|
D|-------------------------|-------------------------|-------------------------|-14-12-10-12-14-12-10-12-|
A|-------------------------|-------------------------|-------------------------|-------------------------|
E|-------------------------|-------------------------|-------------------------|-------------------------|
A|-------------------------|-------------------------|-------------------------|-------------------------|

e|-------------------------|-------------------------|------------|------------|
B|-------------------------|-------------------------|------------|------------|
G|-------------------------|-------------------------|------------|------------|
D|-------------------------|-------------------------|------------|------------|
A|-14-12-10-12-14-12-10-12-|-------------------------|-12----2----|-10---------|
E|-------------------------|-13-12-10-12-13-12-10-12-|-12----2----|-10---------|
A|-------------------------|-------------------------|-12----2----|-10---------|
A|-------------------------|-------------------------|------------|------------|


[Verse one]
                          t        t        t          t                      t        t  
e|----------------------|-------------------------|-------------------------|---------------------|
B|----------------------|-------------------------|-------------15-------15-|-18----15-18-13--15--|
G|----------------------|-------------------------|-14-------14-------14----|----14---------------|
D|----------------------|-------------15-------15-|-------15-------15-------|---------------------|
A|----------12-------12-|-17----12-17----12-17----|----17-------------------|---------------------|
E|--5/10-13----10-13----|----13-------------------|-------------------------|---------------------|
A|----------------------|-------------------------|-------------------------|---------------------|



************************************

| x   Dead note
| h   Hammer-on
| p   Pull-off
| t   Tapping
| /   Slide up
| \   Slide down
| ~   Vibrato
| PM  Palm mute

************************************

            
            
Suggest correction
Creating personal tab
Creating personal tab
You can edit any tab online and save it as your Personal.

You can edit, replace or remove any tab part or add personal notes – all changes will be seen only by you.

Personal tabs can be accessed anytime from any device, even offline.
Learn more »
Give kudos to tab author, rate the tab!
1 2 3 4 5
comments
print report bad tab
guest
You may want to rate the tab now too:
select rating
Wanna post a correction for this tab? Suggest correction