Oops, an error
Loading. Please wait.

3Oh3 - Colorado Sunrise intro tab

version 2
version 2

Intro

2,243 views 1 this week
4 commentsread comments
1 2 3 4 5
3 more votes to show rating
add to favorites
×
Save as Personal and add changes to this tab that will be seen only by you. Learn more ›
×
You can save this tab as Personal to edit and correct it or add notes. All changes will be seen only by you. Learn more »
launch autoscroll
font size
0
reset
how to read this tab
guitar tuner
edit
Autoscroll
slow
fast
+/-
esc
set tempo
stop
Author
Colorado Sunrise - 3OH!3

Tabber: Ryan Hennessey

URL: www.myspace.com/theguyinthefuckyouhat


Tuning: Standard

Notes: The guy who posted this before me had it mostly right. I figured the end set of
while playing. Please rate!

         Guitar 1

e|-------------------------|
B|-------------------------|
G|--3-1--------------------|
D|1-------------------0----|
A|----------6-6-----6------|
E|--------4-------4--------|

e|-------------------------|
B|-------------------------|
G|--3-1--------------------|
D|1-------------------0----|
A|----------6-6-----6------|
E|--------4-------4--------|

         Guitar 1 & 2

e|---------------------------------|
B|---------------------------------|
G|---------------------------------|
D|------8-6------------------------|
A|---6--------------6-6-------9-6--|
E|---------------4---------7-------|


Credit for the last part with both guitars goes to Atreyu619.

            
            
Suggest correction
Creating personal tab
Creating personal tab
You can edit any tab online and save it as your Personal.

You can edit, replace or remove any tab part or add personal notes – all changes will be seen only by you.

Personal tabs can be accessed anytime from any device, even offline.
Learn more »
Give kudos to tab author, rate the tab!
1 2 3 4 5
comments
print report bad tab
4 comments total. Showing first comments.
0 reply
Atreyu619 10 Jan 12, 2009 10:46 AM

? This is wrong. You have the first two parts correct, but the third is off. It should be

|------------------------------------------------
|------------------------------------------------
|------------------------------------------------
|------8-6---------------------------------------
|---6--------------6-6-------9-6-----------------
|---------------4---------7----------------------

I love 3OH!3 :D

0 reply
Atreyu619 10 Jan 12, 2009 10:46 AM

? This is wrong. You have the first two parts correct, but the third is off. It should be

|------------------------------------------------
|------------------------------------------------
|------------------------------------------------
|------8-6---------------------------------------
|---6--------------6-6-------9-6-----------------
|---------------4---------7----------------------

I love 3OH!3 :D

0 reply
Atreyu619 10 Jan 12, 2009 10:47 AM

Sorry About the double post :S

guest
You may want to rate the tab now too:
select rating
Wanna post a correction for this tab? Suggest correction