Oops, an error
Loading. Please wait.

420 Proof - Who Am I tab

208 views 1 this week
no commentswrite comment
1 2 3 4 5
2 more votes to show rating
add to favorites
×
Save as Personal and add changes to this tab that will be seen only by you. Learn more ›
×
You can save this tab as Personal to edit and correct it or add notes. All changes will be seen only by you. Learn more »
launch autoscroll
font size
0
reset
how to read this tab
guitar tuner
edit
Autoscroll
slow
fast
+/-
esc
set tempo
stop
Author
This is a tab by the underground utah metal band 420 proof

Artist: 420 Proof
Song: Who Am I?
Album: Here's Your Proof (October 31st, 2008)
Tuning: Drop D

Intro (Heavy Distortion)
|--------------------------|
|--------------------------|
|--------------------------|
|-0--3-5-6--0-3--0-3-5-8-8-|
|-0--3-5-6--0-3--0-3-5-8-8-|
|-0--3-5-6--0-3--0-3-5-8-8-|

Verse
|-----------------------------------------------------------------|
|-----------------------------------------------------------------|
|-----------------------------------------------------------------|
|-2-2-5-5-2-2-5-5-2-2-5-5-2-2-5-5-5-5-5-5-5-5-5-5-5-5-5-5-5-5-5-5-|
|-2-2-5-5-2-2-5-5-2-2-5-5-2-2-5-5-5-5-5-5-5-5-5-5-5-5-5-5-5-5-5-5-|
|-0-0-0-0-0-0-0-0-0-0-0-0-0-0-0-0-3-3-3-3-3-3-3-3-3-3-3-3-3-3-3-3-|
  . . . . . . . . . . . . . . . . . . . . . . . . . . . . . . . .

Pre Chorus
|--------------------------------------------------------------------------|
|--------------------------------------------------------------------------|
|--------------------------------------------------------------------------|
|-----------------------------------------------------------------------17-|
|-2-2-2-2-2-2-2-2-5-5-5-5-5-5-5-5-7-7-7-7-7-7-7-7-9-9-9-9-9-9-9-9-------15-|
|--------------------------------------------------------------------------|

Chorus (Guitar 1)
|-----------------------------------------------------------------|
|-----------------------------------------------------------------|
|-2-2-2-2-2-2-2-2-------------------------------------------------|
|-2-2-2-2-2-2-2-2-5-5-5-5-2-5-2-0-9-9-9-9-9-9-9-9-7-7-7-7-7-7-7-7-|
|-0-0-0-0-0-0-0-0-5-5-5-5-2-5-2-0-9-9-9-9-9-9-9-9-7-7-7-7-7-7-7-7-|
|-----------------3-3-3-3-2-5-2-0-7-7-7-7-7-7-7-7-5-5-5-5-5-5-5-5-|

Interlude
|---------------------|
|------3--5--3-2--1---|
|-----2---------------|
|-0~------------------|
|-0~------------------|
|-0~------------------|

Rhythm Behind Solo
|------------------------|
|------------------------|
|---------7--------------|
|-2-2-5-5-7--5-7--5-3--1-|
|-2-2-5-5-5--5-7--5-3--1-|
|-0-0-0-0----5-7--5-3--1-|

Solo
|-9fb---------------------------------------------------------|
|-------------8h10p8------------------------------------------|
|--------------------11p10p8-9fb------------------------------|
|--------------------------------------8h10p8/7---------------|
|---------------------------------------------------9-8-------|
|-------------------------------------------------------------|

|----------------5h7-8fb-------7h9p7/5--3-----------------7-10fb-|
|-----------5h7---------------------------------------3h5--------|
|------5h7----------------------------------------3h5------------|
|-5h7------------------------------------------------------------|
|----------------------------------------------------------------|
|----------------------------------------------------------------|

|-10h12-10h12-10h12-10h12-12h14-12h14-12h14-12h14-|
|-------------------------------------------------|
|-------------------------------------------------|
|-------------------------------------------------|
|-------------------------------------------------|
|-------------------------------------------------|

|-15h17-15h17-15h17-15h17-16h18-16h18-16h18-16h18-|
|-------------------------------------------------|
|-------------------------------------------------|
|-------------------------------------------------|
|-------------------------------------------------|
|-------------------------------------------------|

Bridge
|---------------------------------|
|---------------------------------|
|---------------------------------|
|-4-4-4-4-4-4-4-4-7-7-7-7-7-7-7-7-|
|-0-2-0-2-0-2-0-2-0-5-0-5-0-5-0-5-|
|-0-2-0-2-0-2-0-2-0-5-0-5-0-5-0-5-|

After Bridge
|----------------------------------|
|----------------------------------|
|----------------------------------|
|-7(7)7(7)7(7)7(7)7(7)7(7)7(7)7(7)-|
|-0h5-0h5-0h5-0h5-0h5-0h5-0h5-0h5--|
|-0h5-0h5-0h5-0h5-0h5-0h5-0h5-0h5--|

Order Of Play
Intro X8
Verse X6
Pre Chorus
Chorus X4
Interlude X2
Verse X4
Pre Chorus
Chorus X4
Before Bridge X4
Bridge X8
After Bridge X4
Interlude
Chorus X4
Intro X4

Lyrics:

How did I get here?
I don’t remember sleeping at all
When will this all be gone in the end?
How did I make it here?
Yesterday I was no one
No money I stole for food to eat, just to eat


If I’m still asleep
I know I’ll reach the end

I’ve scaled the seven walls
I’ve salted the open wounds
I’ve led the masochists
To their doom
I’ve opened up the door
The key was in the sky
Which leads me to wonder
Who am I?

How can I try?
When everything was taken from me
Nothing left here, raped and robbed from me
How am I alive?
When they showed up at my door
I didn’t even blink as I fell to the floor

If I’m still asleep
I know my time has come

When I was laying in that corner
Blood falling from my face
God wasn’t there
God doesn’t care
If I’m alone in here
What should I do?
Everyone’s abandoned me
Everyone but you

If I’m still here
I made it thru the night
But I’m still scared
Separate me from the light

            
            
Suggest correction
Creating personal tab
Creating personal tab
You can edit any tab online and save it as your Personal.

You can edit, replace or remove any tab part or add personal notes – all changes will be seen only by you.

Personal tabs can be accessed anytime from any device, even offline.
Learn more »
Give kudos to tab author, rate the tab!
1 2 3 4 5
comments
print report bad tab
guest
You may want to rate the tab now too:
select rating
Wanna post a correction for this tab? Suggest correction