Oops, an error
Loading. Please wait.

A Rocket To The Moon - I Think About You Everyday intro tab

6,419 views 1 this week
3 commentsread comments
1 2 3 4 5
1 last vote to show rating
add to favorites
×
Save as Personal and add changes to this tab that will be seen only by you. Learn more ›
×
You can save this tab as Personal to edit and correct it or add notes. All changes will be seen only by you. Learn more »
launch autoscroll
font size
0
reset
how to read this tab
guitar tuner
edit
Autoscroll
slow
fast
+/-
esc
set tempo
stop
Author
Difficulty
----------------------------------------------------------------------------
                      -I think aboout you everyday-
----------------------------------------------------------------------------

Standard tuning*

Intro and Verse

e|--3-3---3-3-3-------3-3---3-3-3-----|
b|--3-3---3-3-3-------3-3---3-3-3-----|
g|--0-0---0-0-0-------0-0---0-0-0-----| <-(just repeat this)
d|--2-2---2-2-2--0----2-2---2-2-2--0--|
a|--3-3---3-3-3--2----3-3---3-3-3--2--|
e|---------------3-----------------3--|


the chorus, i believe uses the same chords with a little variation, but you must figure 
the strumming pattern.

            
            
Suggest correction
Creating personal tab
Creating personal tab
You can edit any tab online and save it as your Personal.

You can edit, replace or remove any tab part or add personal notes – all changes will be seen only by you.

Personal tabs can be accessed anytime from any device, even offline.
Learn more »
Give kudos to tab author, rate the tab!
1 2 3 4 5
comments
print report bad tab
3 comments total.
0 reply
x_kitto_x 191 May 28, 2008 02:11 PM

e|--3-3-3-3-3-3-3---3-3-3-3-3-3-3----|
b|--3-3-3-3-3-3-3---3-3-3-3-3-3-3----|
g|--0-0-0-0-0-0-0---0-0-0-0-0-0-0----| (chorus)
d|--2-2-2-2-2-2-2---0-0-0-0-0-0-0----|
a|--3-3-3-3-3-3-3---2-2-2-2-2-2-2----|
e|------------------3-3-3-3-3-3-3----|

0 reply
x_kitto_x 191 Nov 06, 2011 06:20 AM

Check my band out:

https://www.facebook.com/pages/Dressed-to-Kill/162565387092877?sk=app_178091127385

0 reply
x_kitto_x 191 Nov 06, 2011 06:20 AM

Check my band out:

https://www.facebook.com/pages/Dressed-to-Kill/162565387092877?sk=app_178091127385

guest
You may want to rate the tab now too:
select rating
Wanna post a correction for this tab? Suggest correction