Oops, an error
Loading. Please wait.

Andrew L - Unknown tab

65 views 1 this week
no commentswrite comment
1 2 3 4 5
3 more votes to show rating
add to favorites
×
Save as Personal and add changes to this tab that will be seen only by you. Learn more ›
×
You can save this tab as Personal to edit and correct it or add notes. All changes will be seen only by you. Learn more »
launch autoscroll
font size
0
reset
how to read this tab
guitar tuner
edit
Autoscroll
slow
fast
+/-
esc
set tempo
stop
Author
Difficulty
~ - whammy/hold note
/ - slide up slide down
^ - Bend note
h – hammer-on
p – pull-off

Intro – Guitar I (8X) (Slide from each fret with 1 finger. Drums come in on 3rd cycle, 
comes in on the 5th cycle)
e|-7------7------7---5------5------5---0------0------0---0------0------|
B|-0-0000-0-0000-0-0-0-0000-0-0000-0-0-0-0000-0-0000-0-0-0-0000-0-0000-|
G|---------------------------------------------------------------------|
D|---------------------------------------------------------------------|
A|---------------------------------------------------------------------|
E|---------------------------------------------------------------------|

e|-0-------------------------------------------------------------------|
B|-0-0-----------------------------------------------------------------|
G|---------------------------------------------------------------------|
D|---------------------------------------------------------------------|
A|---------------------------------------------------------------------|
E|---------------------------------------------------------------------|

Guitar II (2X) (Comes in with band)
e|----------------------------------------------------------------------|
B|----------------------------------------------------------------------|
G|----------------------------------------------------------------------|
D|-9--x--9~~~~~~~~~~7--x--7~~~~~~~~~~2--x--2~~~~~~~~~~2--x--2~~~~~~~~~~-|
A|-9—-x--9~~~~~~~~~~7--x--7~~~~~~~~~~2--x--2~~~~~~~~~~2--x--2~~~~~~~~~~-|
E|-7--x--7~~~~~~~~~~5--x--5~~~~~~~~~~0--x--0~~~~~~~~~~0--x--0~~~~~~~~~~-|

Verse - Guitar I (2X) (Guitar 2 is the same)
e|---------------------------------------------------------------------|
B|---------------------------------------------------------------------|
G|---------------------------------------------------------------------|
D|-9-x-x-9-x-x-9-x-x-x-9-9-x-x-7-x-x-7-x-x-7-x-x-x-7-7-x-x-2-x-x-2-x-x-|
A|-9-x-x-9-x-x-9-x-x-x-9-9-x-x-7-x-x-7-x-x-7-x-x-x-7-7-x-x-2-x-x-2-x-x-|
E|-7-x-x-7-x-x-7-x-x-x-7-7-x-x-5-x-x-5-x-x-5-x-x-x-5-5-x-x-0-x-x-0-x-x-|

e|---------------------------------------------------------------------|
B|---------------------------------------------------------------------|
G|---------------------------------------------------------------------|
D|-2-x-x-x-2-2-x-x-2-x-x-2-x-x-2-x-x-x-2-2-x-x-------------------------|
A|-2-x-x-x-2-2-x-x-0-x-x-0-x-x-0-x-x-x-2-2-x-x-------------------------|
E|-0-x-x-x-0-0-x-x-0-x-x-0-x-x-0-x-x-x-0-0-x-x-------------------------|

Pre-Chorus – (2X)
e|-7-x-x-7-x-x-7-x-x-x-7-7-x-x-5-x-x-5-x-x-5-x-x-x-5-5-x-x-------------|
B|-7-x-x-7-x-x-7-x-x-x-7-7-x-x-5-x-x-5-x-x-5-x-x-x-5-5-x-x-------------|
G|-8-x-x-8-x-x-8-x-x-x-8-8-x-x-6-x-x-6-x-x-6-x-x-x-6-6-x-x-------------|
D|-9-x-x-9-x-x-9-x-x-x-9-9-x-x-7-x-x-7-x-x-7-x-x-x-7-7-x-x-2-x-x-2-x-x-|
A|-9-x-x-9-x-x-9-x-x-x-9-9-x-x-7-x-x-7-x-x-7-x-x-x-7-7-x-x-2-x-x-2-x-x-|
E|-7-x-x-7-x-x-7-x-x-x-7-7-x-x-5-x-x-5-x-x-5-x-x-x-5-5-x-x-0-x-x-0-x-x-|

e|---------------------------------------------------------------------|
B|---------------------------------------------------------------------|
G|---------------------------------------------------------------------|
D|-2-x-x-x-2-2-x-x-2-x-x-2-x-x-2-x-x-x-2-2-x-x-------------------------|
A|-2-x-x-x-2-2-x-x-0-x-x-0-x-x-0-x-x-x-2-2-x-x-------------------------|
E|-0-x-x-x-0-0-x-x-0-x-x-0-x-x-0-x-x-x-0-0-x-x-------------------------|


Guitar II – (2X)
e|---------------------------------------------------------------------|
B|---------------------------------------------------------------------|
G|---------------------------------------------------------------------|
D|-9-x-x-9-x-x-9-x-x-x-9-9-x-x-7-x-x-7-x-x-7-x-x-x-7-7-x-x-2-x-x-2-x-x-|
A|-9-x-x-9-x-x-9-x-x-x-9-9-x-x-7-x-x-7-x-x-7-x-x-x-7-7-x-x-2-x-x-2-x-x-|
E|-7-x-x-7-x-x-7-x-x-x-7-7-x-x-5-x-x-5-x-x-5-x-x-x-5-5-x-x-0-x-x-0-x-x-|

e|---------------------------------------------------------------------|
B|---------------------------------------------------------------------|
G|--------------------------------------Only Play after second time----|
D|-2-x-x-x-2-2-x-x-2-x-x-2-x-x-2-x-x-x-2-2-x-x-*|5-5-5-5/7-7-9-9|*-----|
A|-2-x-x-x-2-2-x-x-0-x-x-0-x-x-0-x-x-x-2-2-x-x-*|5-5-5-5/7-7-9-9|*-----|
E|-0-x-x-x-0-0-x-x-0-x-x-0-x-x-0-x-x-x-0-0-x-x-*|3-3-3-3/5-5-7-7|*-----|

Chorus – Guitar I (4X)
e|-7------7------9-7-5------5------5---0------0------0---0------0------|
B|-0-0000-0-0000-0-0-0-0000-0-0000-0-0-0-0000-0-0000-0-0-0-0000-0-0000-|
G|---------------------------------------------------------------------|
D|---------------------------------------------------------------------|
A|---------------------------------------------------------------------|
E|---------------------------------------------------------------------|

e|-0-------------------------------------------------------------------|
B|-0-0-----------------------------------------------------------------|
G|---------------------------------------------------------------------|
D|---------------------------------------------------------------------|
A|---------------------------------------------------------------------|
E|---------------------------------------------------------------------|

Guitar 2 (4X)
e|---------------------------------------------------------------------|
B|---------------------------------------------------------------------|
G|---------------------------------------------------------------------|
D|-9-x-x-9-x-x-9-x-x-x-9-9-x-x-7-x-x-7-x-x-7-x-x-x-7-7-x-x-2-x-x-2-x-x-|
A|-9-x-x-9-x-x-9-x-x-x-9-9-x-x-7-x-x-7-x-x-7-x-x-x-7-7-x-x-2-x-x-2-x-x-|
E|-7-x-x-7-x-x-7-x-x-x-7-7-x-x-5-x-x-5-x-x-5-x-x-x-5-5-x-x-0-x-x-0-x-x-|

e|---------------------------------------------------------------------|
B|---------------------------------------------------------------------|
G|---------------------------------------------------------------------|
D|-2-x-x-x-2-2-x-x-2-x-x-2-x-x-2-x-x-x-2-2-x-x-------------------------|
A|-2-x-x-x-2-2-x-x-0-x-x-0-x-x-0-x-x-x-2-2-x-x-------------------------|
E|-0-x-x-x-0-0-x-x-0-x-x-0-x-x-0-x-x-x-0-0-x-x-------------------------|

After you have done all this then go back and repeat the verse, Pre-chorus, and chorus. 
you play the bridge.


Bridge – (X3) (Both Guitars)
e|---------------------------------------------------------------------B|--|
G|-------------------------------------------------------------------------|
D|-4-4/7-7/9-9/7-7/--------------------------------------------------------|
A|-4-4/7-7/9-9/7-7/--------------------------------------------------------|
E|-2-2/5-5/7-7/5-5/--------------------------------------------------------|

Pre-Solo – (Both Guitars)
e|---------------------------------------------------------------------|
B|---------------------------------------------------------------------|
G|---------------------------------------------------------------------|
D|-4-4/7-7/9-9-9-9-----------------------------------------------------|
A|-4-4/7-7/9-9-9-9-----------------------------------------------------|
E|-2-2/5-5/7-7-7-7-----------------------------------------------------|

Guitar Solo – Guitar II (repeats throughout solo)
e|---------------------------------------------------------------------|
B|---------------------------------------------------------------------|
G|---------------------------------------------------------------------|
D|-9-x-x-9-x-x-9-x-x-x-9-9-x-x-7-x-x-7-x-x-7-x-x-x-7-7-x-x-2-x-x-2-x-x-|
A|-9-x-x-9-x-x-9-x-x-x-9-9-x-x-7-x-x-7-x-x-7-x-x-x-7-7-x-x-2-x-x-2-x-x-|
E|-7-x-x-7-x-x-7-x-x-x-7-7-x-x-5-x-x-5-x-x-5-x-x-x-5-5-x-x-0-x-x-0-x-x-|

e|---------------------------------------------------------------------|
B|---------------------------------------------------------------------|
G|---------------------------------------------------------------------|
D|-2-x-x-x-2-2-x-x-2-x-x-2-x-x-2-x-x-x-2-2-x-x-------------------------|
A|-2-x-x-x-2-2-x-x-0-x-x-0-x-x-0-x-x-x-2-2-x-x-------------------------|
E|-0-x-x-x-0-0-x-x-0-x-x-0-x-x-0-x-x-x-0-0-x-x-------------------------|

Guitar I (Soloist)
e|-7----7---------7--------------------7---7----------7----------------|
B|-------9^10-9~~--9^10-9~~~----------------9^10-9~~~--9^10-9~~~7/5----|
G|------------------------------------------------------------------7--|
D|---------------------------7/9~~~~~~---------------------------------|
A|---------------------------------------------------------------------|
E|---------------------------------------------------------------------|

e|--------------------------------------------------------10----12p10--|
B|----------------------------------10----12p10-----10h12----12--------|
G|-4-------------9----11p9-----9h11----11-------11---------------------|
D|---7/9~~~~9h11---11------11------------------------------------------|
A|---------------------------------------------------------------------|
E|---------------------------------------------------------------------|

e|----10/19~~~~19-16^17-14~~~-16^17-14~~~-17p15-12-10/12---------------|
B|-12—-----------------------------------------------------------------|
G|---------------------------------------------------------------------|
D|---------------------------------------------------------------------|
A|---------------------------------------------------------------------|
E|---------------------------------------------------------------------|


e|-19~~~~19-16^17-14~~~-16^17-14~~~--------------------10h12p10--------|
B|-—--------------------------------17p15-12—10/12~~~~---------10h12---|
G|---------------------------------------------------------------------|
D|---------------------------------------------------------------------|
A|---------------------------------------------------------------------|
E|---------------------------------------------------------------------|

Chorus – Guitar I (5X)
e|-7------7------9-7-5------5------5---0------0------0---0------0-------|
B|-0-0000-0-0000-0-0-0-0000-0-0000-0-0-0-0000-0-0000-0-0-0-0000-0-0000--|
G|----------------------------------------------------------------------|
D|----------------------------------------------------------------------|
A|----------------------------------------------------------------------|
E|----------------------------------------------------------------------|

e|-0-------------------------------------------------------------------|
B|-0-0-----------------------------------------------------------------|
G|---------------------------------------------------------------------|
D|---------------------------------------------------------------------|
A|---------------------------------------------------------------------|
E|---------------------------------------------------------------------|

Guitar 2 (5X)
e|---------------------------------------------------------------------|
B|---------------------------------------------------------------------|
G|---------------------------------------------------------------------|
D|-9-x-x-9-x-x-9-x-x-x-9-9-x-x-7-x-x-7-x-x-7-x-x-x-7-7-x-x-2-x-x-2-x-x-|
A|-9-x-x-9-x-x-9-x-x-x-9-9-x-x-7-x-x-7-x-x-7-x-x-x-7-7-x-x-2-x-x-2-x-x-|
E|-7-x-x-7-x-x-7-x-x-x-7-7-x-x-5-x-x-5-x-x-5-x-x-x-5-5-x-x-0-x-x-0-x-x-|

e|---------------------------------------------------------------------|
B|---------------------------------------------------------------------|
G|---------------------------------------------------------------------|
D|-2-x-x-x-2-2-x-x-2-x-x-2-x-x-2-x-x-x-2-2-x-x-------------------------|
A|-2-x-x-x-2-2-x-x-0-x-x-0-x-x-0-x-x-x-2-2-x-x-------------------------|
E|-0-x-x-x-0-0-x-x-0-x-x-0-x-x-0-x-x-x-0-0-x-x-------------------------|

Outro - Guitar I(hold each note 4 beats)
e|--7/5/0-0------------------------------------------------------------|
B|--0/0/0-0------------------------------------------------------------|
G|---------------------------------------------------------------------|
D|---------------------------------------------------------------------|
A|---------------------------------------------------------------------|
E|---------------------------------------------------------------------|

Guitar II
e|---------------------------------------------------------------------|
B|---------------------------------------------------------------------|
G|---------------------------------------------------------------------|
D|-9/7/2/2-------------------------------------------------------------|
A|-9/7/2/2-------------------------------------------------------------|
E|-7/5/0/0-------------------------------------------------------------|

Copyright 2009 Andrew L.

            
            
Suggest correction
Creating personal tab
Creating personal tab
You can edit any tab online and save it as your Personal.

You can edit, replace or remove any tab part or add personal notes – all changes will be seen only by you.

Personal tabs can be accessed anytime from any device, even offline.
Learn more »
Give kudos to tab author, rate the tab!
1 2 3 4 5
comments
print report bad tab
guest
You may want to rate the tab now too:
select rating
Wanna post a correction for this tab? Suggest correction