Oops, an error
Loading. Please wait.

Andy Crowley - Final Words tab

34 views 1 this week
no commentswrite comment
1 2 3 4 5
3 more votes to show rating
add to favorites
×
Save as Personal and add changes to this tab that will be seen only by you. Learn more ›
×
You can save this tab as Personal to edit and correct it or add notes. All changes will be seen only by you. Learn more »
launch autoscroll
font size
0
reset
how to read this tab
guitar tuner
edit
Autoscroll
slow
fast
+/-
esc
set tempo
stop
Guitar 1: Clean (acoustic), capo on 3rd fret
Guitar 2: Distortion, no capo

Lyrics & chords are under the tabs to make it easier to follow the song
The last chorus is played on distortion but you need capo on 3rd fret


[Intro]
(Guitar 1)
   Em                          C                         A                         C
e|----------------------------------------------------------------------------------------------------------|
B|----------------------------------------------------------------------------------------------------------|
G|-----------------------------------0-------------------------0-----2/4--2--0-----------0------------------|
D|-------2/4--2--0-----2/4--2-----2-----2--2/4--2--0--------2-----2-------------2-----2-----2--2/4--2--0----|
A|----2-------------2----------3----------------------2--4-------------------------3----------------------2-|
E|-0--------------------------------------------------------------------------------------------------------|


[Verse 1]
(Guitar 1)
   Em                          C                         A                         C                     (x2)
e|----------------------------------------------------------------------------------------------------------|
B|----------------------------------------------------------------------------------------------------------|
G|-----------------------------------0-----0h2--0-----0--------0-----2/4--2--0-----------0------------------|
D|-------2/4--2--0-----2/4--2-----2-----2----------4--------2-----2-------------2-----2-----2--2/4--2--0----|
A|----2-------------2----------3-------------------------4-------------------------3----------------------2-|
E|-0--------------------------------------------------------------------------------------------------------|

Em                           C
   Sometimes you get lonely, in the middle of the night
       A                      C
No one there for you, nothing left to fight
Em                           C
   Sometimes you get lonely, in the middle of the night
               A                          C
Though you all can not see, I know you're watching over me


[Chorus]
(Guitar 1)
   Em                          C                         A                         C
e|----------------------------------------------------------------------------------------------------------|
B|----------------------------------------------------------------------------------------------------------|
G|-----------------------------------0-----0h2--0-----0--------0-----2/4--2--0-----------0-----0h2--0-----0-|
D|-------2/4--2--0-----2/4--2-----2-----2----------4--------2-----2-------------2-----2-----2----------4----|
A|----2-------------2----------3-------------------------4-------------------------3------------------------|
E|-0--------------------------------------------------------------------------------------------------------|

Em                      C
You left me, never even said goodbye
A                             C
You didn't have a choice you (...?)


   Em                          C                         A                                         A 
e|---------------------------------------------------------------------------------------------| (strum)
B|-------------------------------------------------------------------0-------------------------|
G|-----------------------------------0-----0h2--0-----0--------0--------0-----0---------0------|
D|-------2/4--2--0-----2/4--2-----2-----2----------4--------2-----2--------2-----2---2-----2---|
A|----2-------------2----------3-------------------------0------------------------0------------|
E|-0-------------------------------------------------------------------------------------------|

Em                          C
You left me, all I have is (...?)
          A                              A
And there are no final words to screech


[Verse 2]
(Guitar 1)
   Em                          C                         A                         C                     (x2)
e|----------------------------------------------------------------------------------------------------------|
B|----------------------------------------------------------------------------------------------------------|
G|-----------------------------------0-----0h2--0-----0--------0-----2/4--2--0-----------0------------------|
D|-------2/4--2--0-----2/4--2-----2-----2----------4--------2-----2-------------2-----2-----2--2/4--2--0----|
A|----2-------------2----------3-------------------------4-------------------------3----------------------2-|
E|-0--------------------------------------------------------------------------------------------------------|

Em                                  C
   Sometimes in the evening, when I just can't sleep
  A                        C
I think of you, it's all I seem to do
Em                                    C
   Sometimes you get restless, as the stars come out
              A                      C
See the world differently, to how it used to be


[Chorus]
(Guitar 1)
   Em                          C                         A                         C
e|----------------------------------------------------------------------------------------------------------|
B|----------------------------------------------------------------------------------------------------------|
G|-----------------------------------0-----0h2--0-----0--------0-----2/4--2--0-----------0-----0h2--0-----0-|
D|-------2/4--2--0-----2/4--2-----2-----2----------4--------2-----2-------------2-----2-----2----------4----|
A|----2-------------2----------3-------------------------4-------------------------3------------------------|
E|-0--------------------------------------------------------------------------------------------------------|

Em                      C
You left me, never even said goodbye
A                             C
You didn't have a choice you (...?)


   Em                          C                         A                                         A 
e|---------------------------------------------------------------------------------------------| (strum)
B|-------------------------------------------------------------------0-------------------------|
G|-----------------------------------0-----0h2--0-----0--------0--------0-----0---------0------|
D|-------2/4--2--0-----2/4--2-----2-----2----------4--------2-----2--------2-----2---2-----2---|
A|----2-------------2----------3-------------------------0------------------------0------------|
E|-0-------------------------------------------------------------------------------------------|

Em                          C
You left me, all I have is (...?)
          A                              A
And there are no final words to screech


[Solo]
(Tab for guitar 2 & chords for guitar 1)
      Em   D            C
e|------------------------------------------------------------------------------------|
B|-8b--7~~------------------------------------------8b--8-6---------6-------6~~~~~~~~-|
G|---------5b--5-3-5b-3-5b-5b--5b--3----------3-------------5b-3-5b(hold)5b(hold)5b~~-|
D|------------------------------------5--3--5---5~------------------------------------|
A|------------------------------------------------------------------------------------|
E|------------------------------------------------------------------------------------|

      Em     D                          C
e|--------------------------------------------------------13b--13b--11-----------11---11---11----|
B|--------6~-------------10-11-10-11----12b--12b--11-9-----------------13b-11-13b--13b--13b--13b-|
G|-5~-7p6----------10-11-------------11----------------10----------------------------------------|
D|-----------10-11-------------------------------------------------------------------------------|
A|-----------------------------------------------------------------------------------------------|
E|-----------------------------------------------------------------------------------------------|

          A                                                 Em       C
e|-----------------------------------------------------------------strum-|
B|-11~~~~~~~~~~~11~13-13b-13-11-11-13-11---------------------------------|
G|---------------------------------------12~~~12-10----------------------|
D|--------------------------------------------------12-10-9--------------|
A|----------------------------------------------------------10~~~~~------|
E|-----------------------------------------------------------------------|
And there are no final words to screech


[Verse 3]
(Guitar 1)
Em                           C
   Sometimes you get lonely, in the middle of the night
               A                          C
Though you all can not see, I know you're watching over me


[Chorus]
(Guitar 1 or guitar 2 w/capo 3rd fret)
 Em                      C
(You left me, never even said goodbye) Sometimes you get lonely
 A                             C
(You didn't have a choice you (...?)) Sometimes you get lonely


(Guitar 2, no capo)
      Em                C             A 
e|--------------------------------------|
B|-8b--7~~------------------------------|
G|---------5b--5-3-5b-3-5b-5b--5b--3----|
D|------------------------------------5-|
A|--------------------------------------|
E|--------------------------------------|
 Em                      C                                        A
(You left me, never even said goodbye) Sometimes you get lone-lonely


(Guitar 1)                                       (Guitar 2, no capo)
Em                          C                    Gm                          Eb5
You left me, all I have is (...?)                You left me, all I have is (...?)
          A                              Em                C5                             Gm
And there are no final words to screech          And there are no final words to screech




************************************

| h   Hammer-on
| p   Pull-off
| b   Bend
| /   Slide up
| ~   Vibrato

            
            
Suggest correction
Creating personal tab
Creating personal tab
You can edit any tab online and save it as your Personal.

You can edit, replace or remove any tab part or add personal notes – all changes will be seen only by you.

Personal tabs can be accessed anytime from any device, even offline.
Learn more »
Give kudos to tab author, rate the tab!
1 2 3 4 5
comments
print report bad tab
guest
You may want to rate the tab now too:
select rating
Wanna post a correction for this tab? Suggest correction