Oops, an error
Loading. Please wait.

Angels Or Vultures - Alice In Wonderment tab

version 1
version 1

Whole song

Interactive

41 views 1 this week
no commentswrite comment
1 2 3 4 5
3 more votes to show rating
add to favorites
×
Save as Personal and add changes to this tab that will be seen only by you. Learn more ›
×
You can save this tab as Personal to edit and correct it or add notes. All changes will be seen only by you. Learn more »
launch autoscroll
font size
0
reset
how to read this tab
guitar tuner
edit
Autoscroll
slow
fast
+/-
esc
set tempo
stop
#----------------------------------PLEASE NOTE---------------------------------#
#This file is the author's own work and represents their interpretation of the #
#song. You may only use this file for private study, scholarship, or research. #
#------------------------------------------------------------------------------#

ALICE IN WONDERMENT
As recorded by Vultures
(From the 2011 Album QUIXOTICALLY YOURS)

Transcribed by Jonathan Rose
        

Words and Music by Jonathan Rose
Arranged by Jonathan Rose

Gtr I (D A D G B E) - 'Lead Guitar'
Gtr II (D A D G B E) - 'Rhythm Guitar'
Gtr III (D A D G) - 'Picked Bass'
Gtr IV (D A D G) - 'Slapped Bass'

 Intro
  Fast Q=141
  N.C.
 16/16
  Gtr II
  ~~~~~~~~~~~~~~~
  W          +W
|----------|--------|
|----------|--------|
|----------|--------|
|----------|--------|
|-5--------|-(5)----|
|----------|--------|


  Gtr I
   S S S S S S S S S S S S  S S S S    S    S S S S S S S S S S S S S S S
|-----------------------------------|--------------------------------------|
|-----------------------------------|--------------------------------------|
|-----------------------------------|---------------------------------7p0--|
|--3p0-0-3p0-0-3p0-6h7p6p0-h4-------|--3p===0-0-3p0-0-3p0-6h7p6p0-5h6------|
|-----------------------------6p5p0-|--------------------------------------|
|-----------------------------------|--------------------------------------|
|
| Gtr II
|  ~~~~~~~~~~~~~~~~~~~~~~~~~~~~~~~~~~~~~~~~~~
| +W                                  +W
|-----------------------------------|--------------------------------------|
|-----------------------------------|--------------------------------------|
|-----------------------------------|--------------------------------------|
|-----------------------------------|--------------------------------------|
|-(5)-------------------------------|-(5)b6r===============================|
|-----------------------------------|--------------------------------------|
|
| Gtr IV
|  S S S S S S S S H                   S    S S S S S S S H
|-----------------------------------|--------------------------------------|
|-----------------------------------|--------------------------------------|
|-----------------------------------|--------------------------------------|
|--3p0-0-3p0-0-3p0------------------|--3p===0-0-3p0-0-3p0------------------|


   S S S S S S S S S S S S  S S S S    S  S S S  S  S S S S S S S  S S S S
|-----------------------------------|----------------------------------------||
|-----------------------------------|----------------------------------------||
|-----------------------------------|----------------------------------------||
|--3p0-0-3p0-0-3p0-6h7p6p0-h4-------|--3p=0-0-3p=0---------------------------||
|-----------------------------6p5p0-|----------------------------------------||
|-----------------------------------|---------------3h6p3-7p0-6p0--3h6p3p0---||
|
|  ~~~~~~~~~~~~~~~~~~~~~~~~~~~~~~~~~~~~~~~~~~~~~~~~~
| +W                                  +Q        +S  S S S S S S S  Q       a
|-----------------------------------|----------------------------------------||
|-----------------------------------|----------------------------------------||
|-----------------------------------|----------------------------------------||
|-----------------------------------|----------------------------------------||
|-(5)-------------------------------|-(5)-------(5)--------------------------||
|-----------------------------------|---------------3h6p3-7p0-6p0-15s======0-||
|
|  S S S S S S S S H                   Q         S  S S S S S S S  Q       a
|-----------------------------------|----------------------------------------||
|-----------------------------------|----------------------------------------||
|-----------------------------------|----------------------------------------||
|--3p0-0-3p0-0-3p0------------------|---------------3h6p3-7p0-6p0-15s======0-||


 Chorus
  N.C.
  S S S S S S S S S S S S  S S S S   S S S S S S S S S S S S S S S S
|----------------------------------|----------------------------------|
|----------------------------------|----------------------------------|
|----------------------------------|-----------------------------7p0--|
|-3p0-0-3p0-0-3p0-6h7p6p0-h4-------|-3p0-0-3p0-0-3p0-6h7p6p0-5h6------|
|----------------------------6p5p0-|----------------------------------|
|----------------------------------|----------------------------------|
|
| TP                       TP        TP              TP
| H.                       Q         H               H
|----------------------------------|----------------------------------|
|----------------------------------|----------------------------------|
|----------------------------------|----------------------------------|
|----------------------------------|----------------------------------|
|----------------------------------|----------------------------------|
|-0------------------------2-------|-3---------------7----------------|
|
| S S S S S S S S S S S S  S S S S   S S S S S S S S S S S S S S S S
|----------------------------------|----------------------------------|
|----------------------------------|----------------------------------|
|----------------------------------|-----------------------------5p0--|
|-3p0-0-3p0-0-3p0-6h7p6p0--5h6p5p0-|-3p0-0-3p0-0-3p0-6h7p6p0-5h6------|


  S S S S S  S S S S S S S  S S S S   S S S S S S S S S S S S S S S S
|-----------------------------------|----------------------------------|
|-----------------------------------|----------------------------------|
|-----------------------------------|----------------------------------|
|-3p0-0-3p0--0-3p0-6h7p6p0-h4-------|-3p0-0-3p0------------------------|
|-----------------------------6p5p0-|----------------------------------|
|-----------------------------------|-----------3h6p3-7p0-6p0-3h6p3p0--|
|
| TP      TP                          TP      TP
| Q       H.                          Q       Q       S S S S S S S S
|-----------------------------------|----------------------------------|
|-----------------------------------|----------------------------------|
|-----------------------------------|----------------------------------|
|-----------------------------------|----------------------------------|
|-----------------------------------|----------------------------------|
|-6-------2-------------------------|-5-------1-------7p0-6p0-3h6p3p0--|
|
| S S S S S  S S S S S S S  S S S S   S S S S S S S S S S S S S S S S
|-----------------------------------|----------------------------------|
|-----------------------------------|----------------------------------|
|-----------------------------------|----------------------------------|
|-3p0-0-3p0--0-3p0-6h7p6p0--5h6p5p0-|-3p0-0-3p0-3h6p3-7p0-6p0-3h6p3p0--|


  S S S S S S S S S S S S  S S S S   S S S S S S S S S S S S S S S S
|----------------------------------|----------------------------------|
|----------------------------------|----------------------------------|
|----------------------------------|-----------------------------7p0--|
|-3p0-0-3p0-0-3p0-6h7p6p0-h4-------|-3p0-0-3p0-0-3p0-6h7p6p0-5h6------|
|----------------------------6p5p0-|----------------------------------|
|----------------------------------|----------------------------------|
|
| TP                       TP        TP              TP
| H.                       Q         H               H
|----------------------------------|----------------------------------|
|----------------------------------|----------------------------------|
|----------------------------------|----------------------------------|
|----------------------------------|----------------------------------|
|----------------------------------|----------------------------------|
|-0------------------------2-------|-3---------------7----------------|
|
| S S S S S S S S S S S S  S S S S   S S S S S S S S S S S S S S S S
|----------------------------------|----------------------------------|
|----------------------------------|----------------------------------|
|----------------------------------|-----------------------------5p0--|
|-3p0-0-3p0-0-3p0-6h7p6p0--5h6p5p0-|-3p0-0-3p0-0-3p0-6h7p6p0-5h6------|


  S S S S S S S S S S S S  S S S S   S S S S S S S S S S S S S S S S
|----------------------------------|----------------------------------||
|----------------------------------|----------------------------------||
|----------------------------------|----------------------------------||
|-3p0-0-3p0-0-3p0-6h7p6p0-h4-------|-3p0-0-3p0------------------------||
|----------------------------6p5p0-|----------------------------------||
|----------------------------------|-----------3h6p3-7p0-6p0-3h6p3p0--||
|
| TP                                 TP              TP      ~~
| H.                       S S S S   H               Q       Q
|----------------------------------|----------------------------------||
|----------------------------------|----------------------------------||
|----------------------------------|----------------------------------||
|----------------------------------|----------------------------------||
|----------------------------------|-------------------------8\-------||
|-8------------------------7h8p7p0-|-6---------------7----------------||
|
| S S S S S S S S S S S S  S S S S   S S S S S S S S S S S S S S S S
|----------------------------------|----------------------------------||
|----------------------------------|----------------------------------||
|----------------------------------|----------------------------------||
|-3p0-0-3p0-0-3p0-6h7p6p0--5h6p5p0-|-3p0-0-3p0-3h6p3-7p0-6p0-3h6p3p0--||


  D5                      E5         E#5             A5
  S S S S S S S S S S S S  S S S S   S S S S S S S S S S S S S S S S
|----------------------------------|----------------------------------|
|----------------------------------|----------------------------------|
|----------------------------------|-----------------------------7p0--|
|-3p0-0-3p0-0-3p0-6h7p6p0-h4-------|-3p0-0-3p0-0-3p0-6h7p6p0-5h6------|
|----------------------------6p5p0-|----------------------------------|
|----------------------------------|----------------------------------|
|
| PM---------------------------------------------------------------|
| S S S S S S S S S S S S  S S S S   S S S S S S S S S S S S S S S S
|----------------------------------|----------------------------------|
|----------------------------------|----------------------------------|
|----------------------------------|----------------------------------|
|----------------------------------|----------------------------------|
|-0-0-0-0-0-0-0-0-0-0-0-0--2-2-2-2-|-3-3-3-3-3-3-3-3-7-7-7-7-7-7-7-7--|
|-0-0-0-0-0-0-0-0-0-0-0-0--2-2-2-2-|-3-3-3-3-3-3-3-3-7-7-7-7-7-7-7-7--|
|
| Gtr III
| S S S S S S S S S S S S  S S S S   S S S S S S S S S S S S S S S S
|----------------------------------|----------------------------------|
|----------------------------------|----------------------------------|
|----------------------------------|----------------------------------|
|-0-0-0-0-0-0-0-0-0-0-0-0--2-2-2-2-|-3-3-3-3-3-3-3-3-7-7-7-7-7-7-7-7--|


  G#5     E5                         G5      D#5             E#5
  S S S S S S S S S S S S  S S S S   S S S S S S S S S S S S S S S S
|----------------------------------|----------------------------------|
|----------------------------------|----------------------------------|
|----------------------------------|----------------------------------|
|-3p0-0-3p0-0-3p0-6h7p6p0-h4-------|-3p0-0-3p0------------------------|
|----------------------------6p5p0-|----------------------------------|
|----------------------------------|-----------3h6p3-7p0-6p0-3h6p3p0--|
|
| PM---------------------------------------------------------------|
| S S S S S S S S S S S S  S S S S   S S S S S S S S S S S S S S S S
|----------------------------------|----------------------------------|
|----------------------------------|----------------------------------|
|----------------------------------|----------------------------------|
|----------------------------------|----------------------------------|
|-6-6-6-6-2-2-2-2-2-2-2-2--2-2-2-2-|-5-5-5-5-1-1-1-1-1-1-1-1-3-3-3-3--|
|-6-6-6-6-2-2-2-2-2-2-2-2--2-2-2-2-|-5-5-5-5-1-1-1-1-1-1-1-1-3-3-3-3--|
|
| S S S S S S S S S S S S  S S S S   S S S S S S S S S S S S S S S S
|----------------------------------|----------------------------------|
|----------------------------------|----------------------------------|
|----------------------------------|----------------------------------|
|-6-6-6-6-2-2-2-2-2-2-2-2--2-2-2-2-|-5-5-5-5-1-1-1-1-1-1-1-1-3-3-3-3--|


  D5                      E5         E#5             A5
  S S S S S S S S S S S S  S S S S   S S S S S S S S S S S S S S S S
|----------------------------------|----------------------------------|
|----------------------------------|----------------------------------|
|----------------------------------|-----------------------------7p0--|
|-3p0-0-3p0-0-3p0-6h7p6p0-h4-------|-3p0-0-3p0-0-3p0-6h7p6p0-5h6------|
|----------------------------6p5p0-|----------------------------------|
|----------------------------------|----------------------------------|
|
| PM---------------------------------------------------------------|
| S S S S S S S S S S S S  S S S S   S S S S S S S S S S S S S S S S
|----------------------------------|----------------------------------|
|----------------------------------|----------------------------------|
|----------------------------------|----------------------------------|
|----------------------------------|----------------------------------|
|-0-0-0-0-0-0-0-0-0-0-0-0--2-2-2-2-|-3-3-3-3-3-3-3-3-7-7-7-7-7-7-7-7--|
|-0-0-0-0-0-0-0-0-0-0-0-0--2-2-2-2-|-3-3-3-3-3-3-3-3-7-7-7-7-7-7-7-7--|
|
| S S S S S S S S S S S S  S S S S   S S S S S S S S S S S S S S S S
|----------------------------------|----------------------------------|
|----------------------------------|----------------------------------|
|----------------------------------|----------------------------------|
|-0-0-0-0-0-0-0-0-0-0-0-0--2-2-2-2-|-3-3-3-3-3-3-3-3-7-7-7-7-7-7-7-7--|


  Bb5                     A5 BbA5D5  G#5             A5      E#maj7/A
  S S S S S S S S S S S S  S S S S   S S S S S S S S S S S S S S S S
|----------------------------------|----------------------------------||
|----------------------------------|----------------------------------||
|----------------------------------|----------------------------------||
|-3p0-0-3p0-0-3p0-6h7p6p0-h4-------|-3p0-0-3p0------------------------||
|----------------------------6p5p0-|----------------------------------||
|----------------------------------|-----------3h6p3-7p0-6p0-3h6p3p0--||
|
| PM--------------------|            PM--------------------|
| S S S S S S S S S S S S  S S S S   S S S S S S S S S S S S S S S S
|----------------------------------|----------------------------------||
|----------------------------------|----------------------------------||
|----------------------------------|-------------------------9-9-9-9--||
|----------------------------------|-------------------------7-7-7-7--||
|-8-8-8-8-8-8-8-8-8-8-8-8--7h8p7p0-|-6-6-6-6-6-6-6-6-7-7-7-7-8-8-8-8--||
|-8-8-8-8-8-8-8-8-8-8-8-8--7h8p7p0-|-6-6-6-6-6-6-6-6-7-7-7-7-7-7-7-7--||
|
| S S S S S S S S S S S S  S S S S   S S S S S S S S S S S S S S S S
|----------------------------------|----------------------------------||
|----------------------------------|----------------------------------||
|----------------------------------|----------------------------------||
|-8-8-8-8-8-8-8-8-8-8-8-8--7h8p7p0-|-6-6-6-6-6-6-6-6-7-7-7-7-7-7-7-7--||


   Verse
    D5                  Bbmaj7    D5
     PM-------|
     S S S  S S S  S  S  S S S  S S S  S S
||-----------------------------------------|
||o----------------------------------------|
||-----------------------------------------|
||----------------------12p0-0-12p0-0-12p0-|
||o-------------0h12h13--------------------|
||--12p0-0-12p0----------------------------|
|
|    PM-----------|               PM--|
|    S S E    E    E     Q        E    E
||-----------------------------------------|
||o----------------------------------------|
||-----------------------2-----------------|
||-----------------------0-----------------|
||o--0-0-0----0----0-----1--------0----0---|
||---0-0-0----0----0--------------0----0---|
|
|   Gtr IV
|    S S E    E    E     Q        E    E
||-----------------------------------------|
||o----------------------0-----------------|
||o----------------------1-----------------|
||---0-0-0----0----0--------------0----0---|


   PM-------|
   S S S  S S S  S  S  S S S  S S S  S S
|----------------------------------------|
|----------------------------------------|
|----------------------------------------|
|---------------------11p0-0-11p0-0-11p0-|
|-------------0h12h13--------------------|
|-11p0-0-11p0----------------------------|
|
|      PM-------|          PM-------|
|  E   S  E   S  E     E   S  E   S  E
|----------------------------------------|
|----------------------------------------|
|----------------------------------------|
|----------------------------------------|
|------0--0---0--0---------0--0---0--0---|
|------0--0---0--0---------0--0---0--0---|
|
|  E   S  E   S  E     E   S  E   S  E
|----------------------------------------|
|----------------------------------------|
|----------------------------------------|
|------0--0---0--0---------0--0---0--0---|


  D5               Bbmaj7  D5            C7          Bb7     Bbmaj7
  PM------|                          PM------|
  S S S S S S S  S S S S S S S S S   S S S S S S S S S S S S S  S S S   4x
|----------------------------------|------------------------------------||
|----------------------------------|-----------------------------------o||
|----------------------------------|------------------------------------||
|------------------8p0-0-8p0-0-8p0-|-----------------7p0-6p0-3h=6p3p0---||
|-----------0h8h10-----------------|-----------0h7h8-------------------o||
|-8p0-0-8p0------------------------|-7p0-0-7p0--------------------------||
|
| PM----------|            PM--|
| S S E   E   E    Q       E   E     E   S E   S E   E   E   Q          4x
|----------------------------------|------------------------------------||
|----------------------------------|-----------------------------------o||
|------------------2---------------|-----3-3---3-3---1---1---2/---------||
|------------------0---------------|-----2-2---2-2---0---0---0----------||
|-0-0-0---0---0----1-------0---0---|-----3-3---3-3---1---1---1/--------o||
|-0-0-0---0---0------------0---0---|------------------------------------||
|
| S S E   E   E    Q       E   E     E   S E   S E   E   E   Q          4x
|----------------------------------|-------------------------2/---------||
|------------------0---------------|-------------------------0---------o||
|------------------1---------------|-----3-3---3-3---1---1-------------o||
|-0-0-0---0---0------------0---0---|------------------------------------||


 Chorus
  N.C.
  S S S S S S S S S S S S  S S S S   S S S S S S S S S S S S S S S S
|----------------------------------|----------------------------------|
|----------------------------------|----------------------------------|
|----------------------------------|-----------------------------7p0--|
|-3p0-0-3p0-0-3p0-6h7p6p0-h4-------|-3p0-0-3p0-0-3p0-6h7p6p0-5h6------|
|----------------------------6p5p0-|----------------------------------|
|----------------------------------|----------------------------------|
|
| TP                       TP        TP              TP
| H.                       Q         H               H
|----------------------------------|----------------------------------|
|----------------------------------|----------------------------------|
|----------------------------------|----------------------------------|
|----------------------------------|----------------------------------|
|----------------------------------|----------------------------------|
|-0------------------------2-------|-3---------------7----------------|
|
| S S S S S S S S S S S S  S S S S   S S S S S S S S S S S S S S S S
|----------------------------------|----------------------------------|
|----------------------------------|----------------------------------|
|----------------------------------|-----------------------------5p0--|
|-3p0-0-3p0-0-3p0-6h7p6p0--5h6p5p0-|-3p0-0-3p0-0-3p0-6h7p6p0-5h6------|


  S S S S S  S S S S S S S  S S S S   S S S S S S S S S S S S S S S S
|-----------------------------------|----------------------------------|
|-----------------------------------|----------------------------------|
|-----------------------------------|----------------------------------|
|-3p0-0-3p0--0-3p0-6h7p6p0-h4-------|-3p0-0-3p0------------------------|
|-----------------------------6p5p0-|----------------------------------|
|-----------------------------------|-----------3h6p3-7p0-6p0-3h6p3p0--|
|
| TP      TP                          TP      TP
| Q       H.                          Q       Q       S S S S S S S S
|-----------------------------------|----------------------------------|
|-----------------------------------|----------------------------------|
|-----------------------------------|----------------------------------|
|-----------------------------------|----------------------------------|
|-----------------------------------|----------------------------------|
|-6-------2-------------------------|-5-------1-------7p0-6p0-3h6p3p0--|
|
| S S S S S  S S S S S S S  S S S S   S S S S S S S S S S S S S S S S
|-----------------------------------|----------------------------------|
|-----------------------------------|----------------------------------|
|-----------------------------------|----------------------------------|
|-3p0-0-3p0--0-3p0-6h7p6p0--5h6p5p0-|-3p0-0-3p0-3h6p3-7p0-6p0-3h6p3p0--|


  S S S S S S S S S S S S  S S S S   S S S S S S S S S S S S S S S S
|----------------------------------|----------------------------------|
|----------------------------------|----------------------------------|
|----------------------------------|-----------------------------7p0--|
|-3p0-0-3p0-0-3p0-6h7p6p0-h4-------|-3p0-0-3p0-0-3p0-6h7p6p0-5h6------|
|----------------------------6p5p0-|----------------------------------|
|----------------------------------|----------------------------------|
|
| TP                       TP        TP              TP
| H.                       Q         H               H
|----------------------------------|----------------------------------|
|----------------------------------|----------------------------------|
|----------------------------------|----------------------------------|
|----------------------------------|----------------------------------|
|----------------------------------|----------------------------------|
|-0------------------------2-------|-3---------------7----------------|
|
| S S S S S S S S S S S S  S S S S   S S S S S S S S S S S S S S S S
|----------------------------------|----------------------------------|
|----------------------------------|----------------------------------|
|----------------------------------|-----------------------------5p0--|
|-3p0-0-3p0-0-3p0-6h7p6p0--5h6p5p0-|-3p0-0-3p0-0-3p0-6h7p6p0-5h6------|


  S S S S S S S S S S S S  S S S S   S S S S S S S S S S S S S S S S
|----------------------------------|----------------------------------||
|----------------------------------|----------------------------------||
|----------------------------------|----------------------------------||
|-3p0-0-3p0-0-3p0-6h7p6p0-h4-------|-3p0-0-3p0------------------------||
|----------------------------6p5p0-|----------------------------------||
|----------------------------------|-----------3h6p3-7p0-6p0-3h6p3p0--||
|
| TP                                 TP              TP      ~~
| H.                       S S S S   H               Q       Q
|----------------------------------|----------------------------------||
|----------------------------------|----------------------------------||
|----------------------------------|----------------------------------||
|----------------------------------|----------------------------------||
|----------------------------------|-------------------------8\-------||
|-8------------------------7h8p7p0-|-6---------------7----------------||
|
| S S S S S S S S S S S S  S S S S   S S S S S S S S S S S S S S S S
|----------------------------------|----------------------------------||
|----------------------------------|----------------------------------||
|----------------------------------|----------------------------------||
|-3p0-0-3p0-0-3p0-6h7p6p0--5h6p5p0-|-3p0-0-3p0-3h6p3-7p0-6p0-3h6p3p0--||


  D5                      E5         E#5             A5
  S S S S S S S S S S S S  S S S S   S S S S S S S S S S S S S S S S
|----------------------------------|----------------------------------|
|----------------------------------|----------------------------------|
|----------------------------------|-----------------------------7p0--|
|-3p0-0-3p0-0-3p0-6h7p6p0-h4-------|-3p0-0-3p0-0-3p0-6h7p6p0-5h6------|
|----------------------------6p5p0-|----------------------------------|
|----------------------------------|----------------------------------|
|
| PM---------------------------------------------------------------|
| S S S S S S S S S S S S  S S S S   S S S S S S S S S S S S S S S S
|----------------------------------|----------------------------------|
|----------------------------------|----------------------------------|
|----------------------------------|----------------------------------|
|----------------------------------|----------------------------------|
|-0-0-0-0-0-0-0-0-0-0-0-0--2-2-2-2-|-3-3-3-3-3-3-3-3-7-7-7-7-7-7-7-7--|
|-0-0-0-0-0-0-0-0-0-0-0-0--2-2-2-2-|-3-3-3-3-3-3-3-3-7-7-7-7-7-7-7-7--|
|
| Gtr III
| S S S S S S S S S S S S  S S S S   S S S S S S S S S S S S S S S S
|----------------------------------|----------------------------------|
|----------------------------------|----------------------------------|
|----------------------------------|----------------------------------|
|-0-0-0-0-0-0-0-0-0-0-0-0--2-2-2-2-|-3-3-3-3-3-3-3-3-7-7-7-7-7-7-7-7--|


  G#5     E5                         G5      D#5             E#5
  S S S S S S S S S S S S  S S S S   S S S S S S S S S S S S S S S S
|----------------------------------|----------------------------------|
|----------------------------------|----------------------------------|
|----------------------------------|----------------------------------|
|-3p0-0-3p0-0-3p0-6h7p6p0-h4-------|-3p0-0-3p0------------------------|
|----------------------------6p5p0-|----------------------------------|
|----------------------------------|-----------3h6p3-7p0-6p0-3h6p3p0--|
|
| PM---------------------------------------------------------------|
| S S S S S S S S S S S S  S S S S   S S S S S S S S S S S S S S S S
|----------------------------------|----------------------------------|
|----------------------------------|----------------------------------|
|----------------------------------|----------------------------------|
|----------------------------------|----------------------------------|
|-6-6-6-6-2-2-2-2-2-2-2-2--2-2-2-2-|-5-5-5-5-1-1-1-1-1-1-1-1-3-3-3-3--|
|-6-6-6-6-2-2-2-2-2-2-2-2--2-2-2-2-|-5-5-5-5-1-1-1-1-1-1-1-1-3-3-3-3--|
|
| S S S S S S S S S S S S  S S S S   S S S S S S S S S S S S S S S S
|----------------------------------|----------------------------------|
|----------------------------------|----------------------------------|
|----------------------------------|----------------------------------|
|-6-6-6-6-2-2-2-2-2-2-2-2--2-2-2-2-|-5-5-5-5-1-1-1-1-1-1-1-1-3-3-3-3--|


  D5                      E5         E#5             A5
  S S S S S S S S S S S S  S S S S   S S S S S S S S S S S S S S S S
|----------------------------------|----------------------------------|
|----------------------------------|----------------------------------|
|----------------------------------|-----------------------------7p0--|
|-3p0-0-3p0-0-3p0-6h7p6p0-h4-------|-3p0-0-3p0-0-3p0-6h7p6p0-5h6------|
|----------------------------6p5p0-|----------------------------------|
|----------------------------------|----------------------------------|
|
| PM---------------------------------------------------------------|
| S S S S S S S S S S S S  S S S S   S S S S S S S S S S S S S S S S
|----------------------------------|----------------------------------|
|----------------------------------|----------------------------------|
|----------------------------------|----------------------------------|
|----------------------------------|----------------------------------|
|-0-0-0-0-0-0-0-0-0-0-0-0--2-2-2-2-|-3-3-3-3-3-3-3-3-7-7-7-7-7-7-7-7--|
|-0-0-0-0-0-0-0-0-0-0-0-0--2-2-2-2-|-3-3-3-3-3-3-3-3-7-7-7-7-7-7-7-7--|
|
| S S S S S S S S S S S S  S S S S   S S S S S S S S S S S S S S S S
|----------------------------------|----------------------------------|
|----------------------------------|----------------------------------|
|----------------------------------|----------------------------------|
|-0-0-0-0-0-0-0-0-0-0-0-0--2-2-2-2-|-3-3-3-3-3-3-3-3-7-7-7-7-7-7-7-7--|


  Bb5                     A5 BbA5D5  G#5             A5      E#maj7/A
  S S S S S S S S S S S S  S S S S   S S S S S S S S S S S S S S S S
|----------------------------------|----------------------------------||
|----------------------------------|----------------------------------||
|----------------------------------|----------------------------------||
|-3p0-0-3p0-0-3p0-6h7p6p0-h4-------|-3p0-0-3p0------------------------||
|----------------------------6p5p0-|----------------------------------||
|----------------------------------|-----------3h6p3-7p0-6p0-3h6p3p0--||
|
| PM--------------------|            PM--------------------|
| S S S S S S S S S S S S  S S S S   S S S S S S S S S S S S S S S S
|----------------------------------|----------------------------------||
|----------------------------------|----------------------------------||
|----------------------------------|-------------------------9-9-9-9--||
|----------------------------------|-------------------------7-7-7-7--||
|-8-8-8-8-8-8-8-8-8-8-8-8--7h8p7p0-|-6-6-6-6-6-6-6-6-7-7-7-7-8-8-8-8--||
|-8-8-8-8-8-8-8-8-8-8-8-8--7h8p7p0-|-6-6-6-6-6-6-6-6-7-7-7-7-7-7-7-7--||
|
| S S S S S S S S S S S S  S S S S   S S S S S S S S S S S S S S S S
|----------------------------------|----------------------------------||
|----------------------------------|----------------------------------||
|----------------------------------|----------------------------------||
|-8-8-8-8-8-8-8-8-8-8-8-8--7h8p7p0-|-6-6-6-6-6-6-6-6-7-7-7-7-7-7-7-7--||


 Bridge
  E#5                   G#5
  PM|           PM       ~~~
  E E E  a  E E E E E   +E  E E E E E E  E
|---------------------|--------------------|
|---------------------|--------------------|
|---------------------|--------------------|
|-----3-(3)s6-7---7-6-|-(6)-3p0---0------0-|
|-0-0-----------0-----|---------4---4-1----|
|-0-0-----------0-----|--------------------|
|
| W                      W
|---------------------|--------------------|
|---------------------|--------------------|
|---------------------|--------------------|
|-3-------------------|--6-----------------|
|-3-------------------|--6-----------------|
|-3-------------------|--6-----------------|
|
| Gtr IV
| H           H          Q    E E Q   Q
|---------------------|--------------------|
|---------------------|--------------------|
|---------------------|--------------------|
|-3-----------3-------|--6----6-6-6---6\---|


  A5                     Bb5
   PM|           PM       ~~~
   E E E  a  E E E E E   +E  E E E E  E E +E
|----------------------|------------------------|
|----------------------|------------------------|
|----------------------|---------7------6-(6)\--|
|------3-(3)s6-7---7-6-|-(6)---0---0------------|
|--0-0-----------0-----|-----6--------6---------|
|--0-0-----------0-----|------------------------|
|
|  W                      W
|----------------------|------------------------|
|----------------------|------------------------|
|----------------------|------------------------|
|--7-------------------|--8---------------------|
|--7-------------------|--8---------------------|
|--7-------------------|--8---------------------|
|
|  H           H          E  E E E H
|----------------------|------------------------|
|----------------------|------------------------|
|----------------------|-----------8\-----------|
|-/7-----------7-------|-/8--8-8-8--------------|


  D5                    E#5
  PM|           PM       ~~~
  E E E  a  E E E E E   +E  E E E E E E E
|---------------------|-------------------|
|---------------------|-------------------|
|---------------------|-------------------|
|-----3-(3)s6-7---7-6-|-(6)-3p0---0-----0-|
|-0-0-----------0-----|---------4---4-1---|
|-0-0-----------0-----|-------------------|
|
| W                      W
|---------------------|-------------------|
|---------------------|-------------------|
|---------------------|-------------------|
|-0-------------------|--3----------------|
|-0-------------------|--3----------------|
|-0-------------------|--3----------------|
|
| H           H          E  E E E E E E E
|---------------------|-------------------|
|---------------------|-------------------|
|---------------------|-------------------|
|-0-----------0-------|-/3--3-3-3-3-3-3-3-|


  D#5                   Bbmaj7sus4/Eb   D#sus4
  PM|           PM       ~~~
  E E E  a  E E E E E   +E   E   E   E   E   E   E   E
|---------------------|----------------------------------|
|---------------------|----------------------------------|
|---------------------|----------------------------------|
|-----3-(3)s6-7---7-6-|-(6)----------0-------0-------0---|
|-0-0-----------0-----|------0---6-------5-------4-------|
|-0-0-----------0-----|----------------------------------|
|
| W                      E   E   E   E   E   E   E   E
|---------------------|----------------------------------|
|---------------------|----------------------------------|
|---------------------|--2-------2-------1-------1-------|
|-1-------------------|-(1)--1--(1)--1--(1)--1--(1)--1---|
|-1-------------------|-(1)-(1)-(1)-(1)-(1)-(1)-(1)-(1)--|
|-1-------------------|-(1)-(1)-(1)-(1)-(1)-(1)-(1)-(1)--|
|
| H           H          E   E   Q       E   E   Q
|---------------------|----------------------------------|
|---------------------|----------------------------------|
|---------------------|----------1---------------0-------|
|-1-----------1-------|--1---1-----------1---1-----------|


  E#5                   G#5
  PM|           PM       ~~~
  E E E  a  E E E E E   +E  E E E E E E  E
|---------------------|--------------------|
|---------------------|--------------------|
|---------------------|--------------------|
|-----3-(3)s6-7---7-6-|-(6)-3p0---0------0-|
|-0-0-----------0-----|---------4---4-1----|
|-0-0-----------0-----|--------------------|
|
| W                      W
|---------------------|--------------------|
|---------------------|--------------------|
|---------------------|--------------------|
|-3-------------------|--6-----------------|
|-3-------------------|--6-----------------|
|-3-------------------|--6-----------------|
|
| H           H          Q    E E Q   Q
|---------------------|--------------------|
|---------------------|--------------------|
|---------------------|--------------------|
|-3-----------3-------|--6----6-6-6---6\---|


  A5                     Bb5       Bb
   PM|           PM       ~~~
   E E E  a  E E E E E   +E  E E E  E  E   E   +E
|----------------------|-----------------------------|
|----------------------|-----------------------------|
|----------------------|---------7---------6---(6)\--|
|------3-(3)s6-7---7-6-|-(6)---0----0----------------|
|--0-0-----------0-----|-----6---------6-------------|
|--0-0-----------0-----|-----------------------------|
|
|  W                      H         Q     +Q
|----------------------|-----------------------------|
|----------------------|-----------------------------|
|----------------------|-----------------------------|
|--7-------------------|--8--------12----(12)\-------|
|--7-------------------|--8---------8-----(8)\-------|
|--7-------------------|--8---------8-----(8)\-------|
|
|  H           H          E  E E E  H
|----------------------|-----------------------------|
|----------------------|-----------------------------|
|----------------------|------------8\---------------|
|-/7-----------7-------|-/8--8-8-8-------------------|


  D5                    E#5                 D#5
  PM|           PM       ~~~
  E E E  a  E E E E E   +E  E E E E E E E   E E E E E E E E
|---------------------|-------------------|-----------------|
|---------------------|-------------------|-----------------|
|---------------------|-------------------|-----------------|
|-----3-(3)s6-7---7-6-|-(6)-3p0---0-----0-|---0---0---0---0-|
|-0-0-----------0-----|---------4---4-1---|-6---6---6---6---|
|-0-0-----------0-----|-------------------|-----------------|
|
|                                           PM------------|
| W                      W                  E E E E E E E E
|---------------------|-------------------|-----------------|
|---------------------|-------------------|-----------------|
|---------------------|-------------------|-----------------|
|-0-------------------|--3----------------|-----------------|
|-0-------------------|--3----------------|-1-1-1-1-1-1-1-1-|
|-0-------------------|--3----------------|-1-1-1-1-1-1-1-1-|
|
| H           H          E  E E E E E E E   Q   Q   Q   Q
|---------------------|-------------------|-----------------|
|---------------------|-------------------|-----------------|
|---------------------|-------------------|-1---1---1---1---|
|-0-----------0-------|-/3--3-3-3-3-3-3-3-|-1---1---1---1---|


  N.C.
  E E E E E E E E    H.                Q  a
|-----------------|--------------------------||
|-----------------|--------------------------||
|-----------------|--------------------------||
|---0---0---0---0-|--------------------------||
|-6---6---6---6---|--------------------------||
|-----------------|-------------------11s=0--||
|
| W                  H.                Q  a
|-----------------|--------------------------||
|-----------------|--------------------------||
|-----------------|--------------------------||
|-----------------|--------------------------||
|-----------------|--------------------------||
|-----------------|-------------------12s=0--||
|
| W                  E  E E E S S S S  Q  a
|-----------------|--------------------------||
|-----------------|--------------------------||
|-----------------|--------------------------||
|-----------------|-/7----6---1h3p1p0-12s=0--||


   Breakdown
    D5                               F#E#D#D5E#5 D#D5
   4/4
    PM|            PM       ~~~
    E E E   a  E E E E E   +E  E E E E   E   E   E
||-----------------------|---------------------------|
||o----------------------|---------------------------|
||-----------------------|---------------------------|
||------3--(3)s6-7---7-6-|-(6)-3p0---0-----------0---|
||o-0-0------------0-----|---------4-----4---1-------|
||--0-0------------0-----|---------------------------|
|
|   PM|            PM---------------------------------
|   E E Q.         E E E    E  E E E S S S S S S S S
||-----------------------|---------------------------|
||o----------------------|---------------------------|
||-----------------------|---------------------------|
||-----------------------|---------------------------|
||o-0-0------------0-0-0-|-----0-0-0-4p3p1p0-3-3p1p0-|
||--0-0------------0-0-0-|-----0-0-0-4p3p1p0-3-3p1p0-|
|
|   E E Q.         E E E    E  E E E S S S S S S S S
||-----------------------|---------------------------|
||o----------------------|---------------------------|
||o----------------------|---------------------------|
||--0-0------------0-0-0-|-----0-0-0-4p3p1p0-3-3p1-0-|


                                  D#b5Bbmaj7
  PM|           PM       ~~~
  E E E  a  E E E E E   +E  E E E E E E +E
|---------------------|----------------------|
|---------------------|----------------------|
|---------------------|---------7-----6-(6)\-|
|-----3-(3)s6-7---7-6-|-(6)---0---0----------|
|-0-0-----------0-----|-----6-------6--------|
|-0-0-----------0-----|----------------------|
|
|-----|         PM--------------|
| E E E     Q   E E E    E  E E E Q   E +E
|---------------------|----------------------|
|---------------------|----------------------|
|---------------------|-----------7---2-(2)/-|
|---------------------|-----------0---0-(0)--|
|-0-0-0---------0-0-0-|-----0-0-0-6---1-(1)/-|
|-0-0-0---------0-0-0-|-----0-0-0------------|
|
| E E E     Q   E E E    E  E E E Q   E +E
|---------------------|----------------------|
|---------------------|-----------0---0-(0)--|
|---------------------|-----------6---1-(1)/-|
|-0-0-0---------0-0-0-|-----0-0-0------------|


  D5                               F#E#D#D5E#5 D#D5
  PM|            PM       ~~~
  E E E   a  E E E E E   +E  E E E E   E   E   E
|----------------------|---------------------------|
|----------------------|---------------------------|
|----------------------|---------------------------|
|-----3--(3)s6-7---7-6-|-(6)-3p0---0-----------0---|
|-0-0------------0-----|---------4-----4---1-------|
|-0-0------------0-----|---------------------------|
|
| PM|            PM---------------------------------
| E E Q.         E E E    E  E E E S S S S S S S S
|----------------------|---------------------------|
|----------------------|---------------------------|
|----------------------|---------------------------|
|----------------------|---------------------------|
|-0-0------------0-0-0-|-----0-0-0-4p3p1p0-3-3p1p0-|
|-0-0------------0-0-0-|-----0-0-0-4p3p1p0-3-3p1p0-|
|
| E E Q.         E E E    E  E E E S S S S S S S S
|----------------------|---------------------------|
|----------------------|---------------------------|
|----------------------|---------------------------|
|-0-0------------0-0-0-|-----0-0-0-4p3p1p0-3-3p1-0-|


                              N.C.
  PM|           PM       ~~~~
  E E E  a  E E E E E   +E  E E E E E E E
|---------------------|----------------------||
|---------------------|---------------------o||
|---------------------|----------------------||
|-----3-(3)s6-7---7-6-|-(6)p0---0---0---0----||
|-0-0-----------0-----|-------6---5---4-----o||
|-0-0-----------0-----|----------------------||
|
|-----|         PM----------|
| E E E     Q   E E E    E  E E E E E E E
|---------------------|----------------------||
|---------------------|---------------------o||
|---------------------|----------------------||
|---------------------|-------7p0-6p0-5p0----||
|-0-0-0---------0-0-0-|-----0---------------o||
|-0-0-0---------0-0-0-|-----0----------------||
|
| E E E     Q   E E E    E  E E E E E E E
|---------------------|----------------------||
|---------------------|---------------------o||
|---------------------|---------------------o||
|-0-0-0---------0-0-0-|-----0-7p0-6p0-5p0----||


 You tough brah.
  D5                          F#E#D#D5E#5 D#D5
  Gtrs I, II
  PM-------------------------------------------
  E E +Q.   E E E   +E  E E E S S S S S S S S
|-----------------|---------------------------|
|-----------------|---------------------------|
|-----------------|---------------------------|
|-----------------|---------------------------|
|-0-0-(0)---0-0-0-|-(0)-0-0-0-4p3p1p0-3-3p1p0-|
|-0-0-(0)---0-0-0-|-(0)-0-0-0-4p3p1p0-3-3p1p0-|
|
| Gtr III
| E E +Q.   E E E   +E  E E E S S S S S S S S
|-----------------|---------------------------|
|-----------------|---------------------------|
|-----------------|---------------------------|
|-0-0-(0)---0-0-0-|-(0)-0-0-0-4p3p1p0-3-3p1-0-|


                             D#bBbmaj7
 --------------------------|
  E E Q.   E E E   +E  E E E Q  E +E
|----------------|----------------------|
|----------------|----------------------|
|----------------|-----------7--2-(2)/--|
|----------------|-----------0--0-(0)---|
|-0-0-0----0-0-0-|-(0)-0-0-0-6--1-(1)/--|
|-0-0-0----0-0-0-|-(0)-0-0-0------------|
|
|                            Gtr IV
| E E Q.   E E E   +E  E E E Q  E +E
|----------------|----------------------|
|----------------|-----------0--0-(0)---|
|----------------|-----------6--1-(1)/--|
|-0-0-0----0-0-0-|-(0)-0-0-0------------|


  D5                       F#E#D#D5E#5 D#D5
  PM|      PM-------------------------------
  E E Q.   E E E   E E E E S S S S S S S S
|----------------|-------------------------|
|----------------|-------------------------|
|----------------|-------------------------|
|----------------|-------------------------|
|-0-0------0-0-0-|---0-0-0-4p3p1p0-3-3p1p0-|
|-0-0------0-0-0-|---0-0-0-4p3p1p0-3-3p1p0-|
|
| Gtr III
| E E Q.   E E E   E E E E S S S S S S S S
|----------------|-------------------------|
|----------------|-------------------------|
|----------------|-------------------------|
|-0-0------0-0-0-|---0-0-0-4p3p1p0-3-3p1-0-|


 -----|    PM----------|   PM  PM
  E E E Q  E E E   E E E E E E E E
|----------------|------------------||
|----------------|------------------||
|----------------|------------------||
|----------------|------------------||
|-0-0-0----0-0-0-|---0-0---0---0----||
|-0-0-0----0-0-0-|---0-0---0---0----||
|
| E E E Q  E E E   E E E E E E E E
|----------------|------------------||
|----------------|------------------||
|----------------|------------------||
|-0-0-0----0-0-0-|---0-0---0---0----||


 Clowns...man!
  N.C.
  Gtr I
  W                                 S S S S S S S S S S S S  E  +E
|---------------------------------|----------------------------------||
|---------------------------------|----------------------------------||
|---------------------------------|----------------------------------||
|---------------------------------|----------------------------------||
|---------------------------------|----------------------------------||
|---------------------------------|-6p0-5p0-4h5p4p0-3p0-2p0-12-(12)\-||
|
| Gtr II
| S S S S S S S S S S S S S S S S   S S S S S S S S S S S S  E  +E
|---------------------------------|----------------------------------||
|---------------------------------|----------------------------------||
|---------------------------------|----------------------------------||
|---------------------------------|----------------------------------||
|---------------------------------|----------------------------------||
|-7p0-6p0-5h6p5p0-4p0-3p0-2p0-3p0-|-6p0-5p0-4h5p4p0-3p0-2p0-12-(12)\-||
|
| Gtr IV
| E   Q.          E   Q.            E   Q.          E   E    E  +E
|---------------------------------|----------------------------------||
|---------------------------------|----------------------------------||
|---------------------------------|----------------------------------||
|-0---------------0---------------|-0---------------0-------12-(12)\-||


   Outro Breakdown
    D5   D5                                 D5  Dm  D5
    Gtr I
              T         T      T      T              T         T      T      T
    S S  S S  S  S S S  S S S  S S S  S S   S S S S  S  S S S  S S S  S S S  S S
||----------------------------------------|--------------------------------------|
||o---------------------------------------|--------------------------------------|
||-----------14---------------------------|---------14---------------------------|
||--3-0p-6h7-------7p6-12p7p6-13p7p6-12p7-|-3p0-6h7-------7p6-12p7p6-13p7p6-12p7-|
||o---------------------------------------|--------------------------------------|
||----------------------------------------|--------------------------------------|
|
|   Gtr II
|   PM---|                  PM----------------------|              PM-------------
|   E    E    Q.            S  E   S  E     E   E    E    Q        S  E   S  E
||----------------------------------------|--------------------------------------|
||o---------------------------------------|--------------------------------------|
||----------------------------------------|--------------------------------------|
||--7-------------------------------------|-7---3--------------------------------|
||o-0----0------------------0--0---0--0---|-0---0----0-------------0--0---0--0---|
||--0----0------------------0--0---0--0---|-0---0----0-------------0--0---0--0---|
|
|   S S  S S  Q         S S S  S S S  S S   S S S S  Q         S S S  S S S  S S
||------------7\--------------------------|----------7\--------------------------|
||o-----------7\--------------------------|----------7\--------------------------|
||o-----------5\--------------------------|----------5\--------------------------|
||--3p0--6h7------------0-0----0---0--0-0-|-3p0-6h7------------0-0----0---0--0-0-|


  D5  Dm  D5                             Dm              Amaj7sus4/D
           T         T      T      T
  S S S S  S  S S S  S S S  S S S  S S   S S S S S S S S S S S S S S S S    4x
|--------------------------------------|------------------------------------||
|--------------------------------------|-----------------------------------o||
|---------14---------------------------|------------------------------------||
|-3p0-6h7-------7p6-12p7p6-13p7p6-12p7-|-7p0-6p0-5h6p5p0-4p0-3p0-2p0-3p0----||
|--------------------------------------|-----------------------------------o||
|--------------------------------------|------------------------------------||
|
|---------|              PM----------------------------------------|
| E   E    E    Q        S  E   S  E     E   S E   S E   E   S E   S E      4x
|--------------------------------------|------------------------------------||
|--------------------------------------|-----------------------------------o||
|--------------------------------------|------------------------------------||
|-7---3--------------------------------|-3---3-3---3-3---6---6-6---6-6------||
|-0---0----0-------------0--0---0--0---|-0---0-0---0-0---0---0-0---0-0-----o||
|-0---0----0-------------0--0---0--0---|-0---0-0---0-0---0---0-0---0-0------||
|
| S S S S  Q         S S S  S S S  S S   S S S S S S S S S S S S S S S S    4x
|----------7\--------------------------|------------------------------------||
|----------7\--------------------------|-----------------------------------o||
|----------5\--------------------------|-----------------------------------o||
|-3p0-6h7------------0-0----0---0--0-0-|-7p0-6p0-5h6p5p0-4p0-3p0-2p0-3p0----||


   Break it the fuck down.
    D       D5        D       D5    D       D5          D       D5
    Gtr I
    PM          PM        PM|       PM|
    E   S S S S E S S S S S S S S   S S S S S S S S S S S S S S S S
||--------------------------------|---------------------------------|
||o-------------------------------|-----------------5h6-------------|
||--------------------------------|-------------6h7-----6h7---------|
||----------7h8-------7h8---------|---------7h8-------------7h8-----|
||o-0---4h5-----0-4h5-----0-0-4h5-|-0-0-4h5---------------------7h8-|
||--0-----------0---------0-0-----|-0-0-----------------------------|
|
|   Gtr II
|   PM|     PM|       PM--------------------|           PM-----------
|   S S E   S S Q     S E   S E     E   E   E   Q       S E   S E
||--------------------------------|---------------------------------|
||o-------------------------------|---------------------------------|
||--------------------------------|---------------------------------|
||--------------------------------|---------------------------------|
||o-5-5-----0-0-------5-5---5-0---|-5---5---0-----------5-5---5-0---|
||--0-0-----0-0-------0-0---0-0---|-0---0---0-----------0-0---0-0---|
|
|   Gtr IV
|   S S E   S S Q     S E   S E     E   E   E   Q       S E   S E
||--------------------------------|---------------------------------|
||o-------------------------------|---------------------------------|
||o-5-5-----0-0-------5-5---5-0---|-5---5---0-----------5-5---5-0---|
||--0-0-----0-0-------0-0---0-0---|-0---0---0-----------0-0---0-0---|


  D       D5        D       D5    Bb/D
  PM          PM        PM|
  E   S S S S E S S S S S S S S   S S S  S S S S S S S S S   S  S S S     4x
|-------------------------------|-----------------------------------------||
|-------------------------------|--------------6h8----------------5h6----o||
|-------------------------------|----------7h9---------------6h=7---------||
|---------7h8-------7h8---------|-----8h10-------------7h8----------------||
|-0---4h5-----0-4h5-----0-0-4h5-|-5h7--------------4h5-------------------o||
|-0-----------0---------0-0-----|-----------------------------------------||
|
|---|     PM|       PM--------------------------------------------|
| S S E   S S Q     S E   S E     E   S  E   S E   E   S E      S E       4x
|-------------------------------|-----------------------------------------||
|-------------------------------|----------------------------------------o||
|-------------------------------|-----------------------------------------||
|-------------------------------|-----------------------------------------||
|-5-5-----0-0-------5-5---5-0---|-1---1--1---1-1---4---4-4------4-4------o||
|-0-0-----0-0-------0-0---0-0---|-0---0--0---0-0---0---0-0------0-0-------||
|
| S S E   S S Q     S E   S E     Q        Q       E   E     Q            4x
|-------------------------------|-----------------------------------------||
|-------------------------------|--------------------------/14\----------o||
|-5-5-----0-0-------5-5---5-0---|-1--------1-------4---4---/13\----------o||
|-0-0-----0-0-------0-0---0-0---|-0--------0-------0---0-----0------------||


    D       D5       D     D5  D   D5     D     D5
    PM---------------------------------------------
    S S +E  S S +Q   S E S E   E E E +Q   S E S E
||---------------------------|--------------------|
||o--------------------------|--------------------|
||---------------------------|--------------------|
||---------------------------|--------------------|
||o-5-5-(5)-0-0-(0)--5-5-5-0-|-5-5-0-(0)--5-5-5-0-|
||--0-0-(0)-0-0-(0)--0-0-0-0-|-0-0-0-(0)--0-0-0-0-|
|
|   PM---------------------------------------------
|   S S +E  S S +Q   S E S E   E E E +Q   S E S E
||---------------------------|--------------------|
||o--------------------------|--------------------|
||---------------------------|--------------------|
||---------------------------|--------------------|
||o-5-5-(5)-0-0-(0)--5-5-5-0-|-5-5-0-(0)--5-5-5-0-|
||--0-0-(0)-0-0-(0)--0-0-0-0-|-0-0-0-(0)--0-0-0-0-|
|
|   S S +E  S S +Q   S E S E   E E E +Q   S E S E
||---------------------------|--------------------|
||o--------------------------|--------------------|
||o-5-5-(5)-0-0-(0)--5-5-5-0-|-5-5-0-(0)--5-5-5-0-|
||--0-0-(0)-0-0-(0)--0-0-0-0-|-0-0-0-(0)--0-0-0-0-|


  D       D5       D     D5  Bb/D      Dbb5
 ----------------------------------------------|
  S S +E  S S +Q   S E S E   E S E S E E S E S E   6x
|--------------------------|-----------------------||
|--------------------------|----------------------o||
|--------------------------|-----------------------||
|--------------------------|-----------------------||
|-5-5-(5)-0-0-(0)--5-5-5-0-|-1-1-1-1-1-4-4-4-4-4--o||
|-0-0-(0)-0-0-(0)--0-0-0-0-|-0-0-0-0-0-0-0-0-0-0---||
|
|----------------------------------------------|
| S S +E  S S +Q   S E S E   E S E S E E S E S E   6x
|--------------------------|-----------------------||
|--------------------------|----------------------o||
|--------------------------|-----------------------||
|--------------------------|-----------------------||
|-5-5-(5)-0-0-(0)--5-5-5-0-|-1-1-1-1-1-4-4-4-4-4--o||
|-0-0-(0)-0-0-(0)--0-0-0-0-|-0-0-0-0-0-0-0-0-0-0---||
|
| S S +E  S S +Q   S E S E   E S E S E E S E S E   6x
|--------------------------|-----------------------||
|--------------------------|----------------------o||
|-5-5-(5)-0-0-(0)--5-5-5-0-|-1-1-1-1-1-4-4-4-4-4--o||
|-0-0-(0)-0-0-(0)--0-0-0-0-|-0-0-0-0-0-0-0-0-0-0---||



Duration Legend
---------------
W - whole; H - half; Q - quarter; E - 8th; S - 16th; T - 32nd; X - 64th; a - acciaccatura
+ - note tied to previous; . - note dotted; .. - note double dotted
Uncapitalized letters represent notes that are staccato (1/2 duration)
Irregular groupings are notated above the duration line
Duration letters will always appear directly above the note/fret number it represents the
duration for.  Duration letters with no fret number below them represent rests.  Multi-
bar rests are notated in the form Wxn, where n is the number of bars to rest for.  Low
melody durations appear below the staff

Tablature Legend
----------------
 h   - hammer-on
 p   - pull-off
 b   - bend
 pb  - pre-bend
 r   - bend release (if no number after the r, then release immediately)
 /\  - slide into or out of (from/to "nowhere")
 s   - legato slide
 S   - shift slide
 - natural harmonic
[n]  - artificial harmonic
n(n) - tapped harmonic
 ~   - vibrato
 tr  - trill
 T   - tap
 TP  - trem. picking
 PM  - palm muting
\n/  - tremolo bar dip; n = amount to dip
 \n  - tremolo bar down
 n/  - tremolo bar up
/n\  - tremolo bar inverted dip
 =   - hold bend; also acts as connecting device for hammers/pulls
 <> - volume swell (louder/softer)
 x   - on rhythm slash represents muted slash
 o   - on rhythm slash represents single note slash

Misc Legend
-----------
 |  - bar
||  - double bar
||o - repeat start
o|| - repeat end
*|  - double bar (ending)
 :  - bar (freetime)
 $  - Segno
 &  - Coda
Tempo markers -  = BPM(8/16=s8/s16), where s8 = swing 8ths, s16 = swing 16ths


** Generated using Power Tab Editor by Brad Larsen: The Official Power Tab Web Site

            
            
Suggest correction
Creating personal tab
Creating personal tab
You can edit any tab online and save it as your Personal.

You can edit, replace or remove any tab part or add personal notes – all changes will be seen only by you.

Personal tabs can be accessed anytime from any device, even offline.
Learn more »
Give kudos to tab author, rate the tab!
1 2 3 4 5
comments
print report bad tab
guest
You may want to rate the tab now too:
select rating
Wanna post a correction for this tab? Suggest correction