Oops, an error
Loading. Please wait.

Anthony - Samanthas Lullaby tab

474 views 1 this week
no commentswrite comment
1 2 3 4 5
3 more votes to show rating
add to favorites
×
Save as Personal and add changes to this tab that will be seen only by you. Learn more ›
×
You can save this tab as Personal to edit and correct it or add notes. All changes will be seen only by you. Learn more »
launch autoscroll
font size
0
reset
how to read this tab
guitar tuner
edit
Autoscroll
slow
fast
+/-
esc
set tempo
stop
Author
Difficulty
Intro
e|--------2p0---------2p0-----2h3p2p0-----0|
B|------3-----3-----3-----3-----------3---3|
G|--2p0---------0h2---------0-----------0-0|
D|----------------------------------------2|
A|----------------------------------------3|
E|-----------------------------------------|

e|------------0-----3p2-----2p0----0|
B|------3-------3-------3---3---3--3|
G|--0-----0-------0-------0-2------2|
D|2---2-----2---------------0------0|
A|3---------------------------------|
E|----------------------------------|

Verse 1
e|--------2p0---------2p0-----2h3p2p0-----0|
B|------3-----3-----3-----3-----------3---3|
G|--2p0---------0h2---------0-----------0-0|
D|----------------------------------------2|
A|----------------------------------------3|
E|-----------------------------------------|

e|------------0-----3p2-----2p0----0|
B|------3-------3-------3---3---3--3|
G|--0-----0-------0-------0-2------2|
D|2---2-----2---------------0------0|
A|3---------------------------------|
E|----------------------------------|

*Lyrics start in here but I'll post those afterwards... For right now you just repeat 
It does get a lil boring and repetative so mix up the picking style a lil bit.*

Verse 2
e|--------2p0---------2p0-----2h3p2p0-----0|
B|------3-----3-----3-----3-----------3---3|
G|--2p0---------0h2---------0-----------0-0|
D|----------------------------------------2|
A|----------------------------------------3|
E|-----------------------------------------|

e|------------0-----3p2-----2p0----0|
B|------3-------3-------3---3---3--3|
G|--0-----0-------0-------0-2------2|
D|2---2-----2---------------0------0|
A|3---------------------------------|
E|----------------------------------|

Interlude
*There is a strumming pattern to each of the chords... Just mess with it and make it 
however you like. and let those notes ring with the tail on the end of them for only bout a 
Not very long.*
e|3--2--0-|-3p0-0---------0/0--0-0-0~------------5-------------0\0--0-0-0~|
B|3--3--1-|-------3p1-----1/3--3-3-3~--------3-----3---5p3-----3\1--1-1-1~|
G|0--2--0-|-----------0---0/0--0-0-0~----0-----0-----0-----0---0\0--0-0-0~|
D|2--0--2-|-------------2-2/4--4-4-4~--4---4-----------------4-4\2--2-2-2~|
A|3--X--3-|---------------3/5--5-5-5~--5-----------------------5\3--3-3-3~|
E|X--X--X-|---------------X-X--X-X-X---------------------------X-X--X-X-X-|


*This last D chord you wanna strum a few more times than the rest and in a different 
pattern.*
e|-3p0-0---------0-0-0--0-0-0--0-0-0--2h3p2p0-----3|
B|-------3p1-----1-1-1--1-1-1--0-0-0--3-------3---3|
G|-----------0---0-0-0--2-2-2--0-0-0--2---------2-0|
D|-------------2-2-2-2--2-2-2--2-2-2--0-----------2|
A|---------------3-3-3--0-0-0--2-2-2--X-----------3|
E|---------------X-X-X--X-X-X--0-0-0--X-----------X|

Verse 3
e|--------2p0---------2p0-----2h3p2p0-----0|
B|------3-----3-----3-----3-----------3---3|
G|--2p0---------0h2---------0-----------0-0|
D|----------------------------------------2|
A|----------------------------------------3|
E|-----------------------------------------|

e|------------0-----3p2-----2p0----0|
B|------3-------3-------3---3---3--3|
G|--0-----0-------0-------0-2------2|
D|2---2-----2---------------0------0|
A|3---------------------------------|
E|----------------------------------|

Outro
e|--------2p0---------2p0-----2h3p2p0-----0|
B|------3-----3-----3-----3-----------3---3|
G|--2p0---------0h2---------0-----------0-0|
D|----------------------------------------2|
A|----------------------------------------3|
E|-----------------------------------------|

e|------------0-----3p2-----2p0----0|
B|------3-------3-------3---3---3--3|
G|--0-----0-------0-------0-2------2|
D|2---2-----2---------------0------0|
A|3---------------------------------|
E|----------------------------------|


*The rest of the song is going to go like that but just a lil slower. Hope you liked it. 
is dedicated to my most amazing girlfriend Samantha. You actually play all this:
e|--------2p0---------2p0-----2h3p2p0-----0|
B|------3-----3-----3-----3-----------3---3|
G|--2p0---------0h2---------0-----------0-0|
D|----------------------------------------2|
A|----------------------------------------3|
E|-----------------------------------------|

e|------------0-----3p2-----2p0----0|
B|------3-------3-------3---3---3--3|
G|--0-----0-------0-------0-2------2|
D|2---2-----2---------------0------0|
A|3---------------------------------|
E|----------------------------------|
In between each line of the verses...

Lyrics:
Verse 1
When I see your eyes...
I try to find the words...
Who will be the one?...
to give you the stars...

Verse 2
How will I hold your hand?...
When I'm bound by your gaze...
The moon will turn away...
From your beautiful...
Everlonging Gaze...

Interlude
Places and people... will rise...
Storms and creatures... will fall...

Verse 3
When the night turns to day...
The sun shows no shame...
Worldwide the people will see...
How god favors me...

Outro
He gave you to me...
And the angels will sing...
For you are with me...
and I will... Give you everything...

*it is a very long song... at least 6 mins... depending on how you play it. Hope it is good.

            
            
Suggest correction
Creating personal tab
Creating personal tab
You can edit any tab online and save it as your Personal.

You can edit, replace or remove any tab part or add personal notes – all changes will be seen only by you.

Personal tabs can be accessed anytime from any device, even offline.
Learn more »
Give kudos to tab author, rate the tab!
1 2 3 4 5
comments
print report bad tab
guest
You may want to rate the tab now too:
select rating
Wanna post a correction for this tab? Suggest correction