Oops, an error
Loading. Please wait.

Astaroth - Unflesh Bonecrush tab

19 views 1 this week
no commentswrite comment
1 2 3 4 5
3 more votes to show rating
add to favorites
×
Save as Personal and add changes to this tab that will be seen only by you. Learn more ›
×
You can save this tab as Personal to edit and correct it or add notes. All changes will be seen only by you. Learn more »
launch autoscroll
font size
0
reset
how to read this tab
guitar tuner
edit
Autoscroll
slow
fast
+/-
esc
set tempo
stop
[Intro/Main Riff]

e|----------------------------------------------------|
B|----------------------------------------------------|
G|----------------------------------------------------|
D|----------------------------------------------------| x4
A|5-------5---6-------6---5-------5---4---------------|
E|--3-0-3---3---5-0-5---5---7-0-7---7---6-5-3-5-6-5-3-| 


[Technical Groove Riff]

e|-------------------------------|--------------------------------|-----------|
B|-------------------------------|--------------------------------|-----------|
G|-------------------------------|--------------------------------|-----------|
D|-------------------------------|--------------------------------|-----------|
A|3---------------4--------------|-5---------------6--------------|3----------|
E|--6-5-3-5-6-5-3---6-5-3-5-6-5-3|---6-5-3-5-6-5-3---5-3-0-3-5-6-5|--6-5-3-5-6|

e|-------------------|--------------------------------|-----------------------|
B|-------------------|--------------------------------|-----------------------|
G|-------------------|--------------------------------|-----------------------|
D|----3--------------|--------------------------------|-----------------------|
A|-------------------|-6---------------4--------------|5---------------6------|
E|5-3---6-5-3-5-6-5-3|---6-5-3-5-6-5-3---6-5-3-5-6-5-3|--8-7-5-7-8-7-5---8-7-5|

e|-------|--------------------------------|--------------------------------|--|
B|-------|--------------------------------|--------------------------------|--|
G|-------|--------------------------------|--------------------------------|--|
D|-------|--------------------------------|-----------------5--------------|--|
A|-------|-7---------------8--------------|-5------------------------------|-8|
E|7-8-7-5|---8-7-5-7-8-7-5---7-5-0-5-7-8-7|---8-7-5-7-8-7-5---8-7-5-7-8-7-5|--|

e|-----------------------------|
B|-----------------------------|
G|-----------------------------|
D|-----------------------------|
A|--------------6--------------|
E|8-7-5-7-8-7-5---8-7-5-7-8-7-5|


[Verse 1 & 2] 

(2nd Verse open D are gut ripping 16th notes]

e|------------------|------------------|------------------|---------------------|
B|------------------|------------------|------------------|---------------------|
G|------------------|------------------|------------------|---------------------|
D|------------------|------------------|------------------|---------------------|
A|------------------|------------------|------------------|---------------------|
E|3h6p3-0-0-0-0-0-0-|1h4p1-0-0-0-0-0-0-|3h6p3-0-0-0-0-0-0-|5h6p5-0-0-3h5p3-0-0--|

e|------------------|------------------|------------------|-----------------|
B|------------------|------------------|------------------|-----------------| x4 
G|------------------|------------------|------------------|-----------------|
D|------------------|------------------|------------------|-----------------|
A|------------------|------------------|--------3h5p3-----|--------5h6p5----|
E|1h3p1-0-0-0-0-0-0-|1h4p1-0-0-1-4-1-0-|3h5-3h6-------6-5-|5h8-5h6-------6-5|


[Verse 1 Ending]

(4th time)

e|------------------|------------------|------------------|---------------------|
B|------------------|------------------|------------------|---------------------|
G|------------------|------------------|------------------|---------------------|
D|------------------|------------------|------------------|--------5h6p5--------|
A|--------3h5p3-----|--------5h6p5-----|--------3h5p3-----|5h8-5h6-------6-5----|
E|3h5-3h6-------6-5-|5h8-5h6-------6-5-|3h5-3h6-------6-5-|---------------------|
                                                           high harmony 

[Crazy Riff]

e|--------------------|----------------|--------------------|----------------------|
B|--------------------|----------------|--------------------|----------------------|
G|--------------------|----------------|--------------------|----------------------|  x4 
D|--------------------|----------------|--------------------|----------------------|
A|3h5p3-----2h5p2-----|----------------|3h4p3-----2h3p2-----|----------------------|
E|------6-5-------6-3-|0-1-3-5-6-5-3-5-|------6-3-------4-1-|5-6-5-3-1-3-1-0-------|


[Brutal Groove Down]

e|------------------------|--------------------------|---|
B|------------------------|--------------------------|---|
G|------------------------|--------------------------|---| x10
D|------------------------|--------------------------|---|
A|------------------------|------------------------1-|0--|
E|000-0-000-0-000-0-000-0-|000-0-000-0-0-000-0-000-1-|0--| 


[Chorus]

Triplet Feel
 
e|------------------------|------------------------|------------------------|-----------------------|
B|------------------------|------------------------|------------------------|-----------------------|
G|------------------------|------------------------|------------------------|-----------------------| 
D|------------------------|------------------------|------------------------|-----------------------|
A|0-----------3-----------|1-----------5-----4-----|5-----------3-----------|6----------------------|
E|0-000-0-0-0-3-000-0-0-0-|1-000-0-0-0-5-000-6-000-|7-000-0-0-0-3-000-0-0-0-|--8-6-5-6-5-0-3-5-6-5-3|


e|------------------------|------------------------|------------------------|-----------------------|
B|------------------------|------------------------|------------------------|-----------------------| x2 
G|------------------------|------------------------|------------------------|-----------------------| 
D|------------------------|------------------------|------------------------|-----------------------|
A|0-----------3-----------|1-----------5-----4-----|5-----------1-----------|3----------------------|
E|0-000-0-0-0-3-000-0-0-0-|1-000-0-0-0-5-000-6-000-|7-000-0-0-0-1-000-0-0-0-|--6-5-3-1-0-3-5-6-5-3/1|


[Solo Rhythm]

Triplet Feel

e|------------------------|------------------------|------------------------|-----------------------|
B|------------------------|------------------------|------------------------|-----------------------|
G|------------------------|------------------------|------------------------|-----------------------| 
D|------------------------|------------------------|------------------------|-----------------------|
A|------------------------|6-----------------------|1-----------------------|3-----------5----------|
E|0-000-0-0-0-0-000-0-0-0-|--8-6-5-6-5-0-3-5-6-5-3-|1-111-1-1-1-1-111-1-1-1-|3-333-3-3-3-5-555-5-5-5|


e|------------------------|------------------------|------------------------|-----------------------|
B|------------------------|------------------------|------------------------|-----------------------| x2
G|------------------------|------------------------|------------------------|-----------------------| 
D|------------------------|------------------------|------------------------|5-----------2----------|
A|------------------------|3-----------------------|3-----------------------|3-333-3-3-3-0-000-0-0-0|
E|0-000-0-0-0-0-000-0-0-0-|--6-5-3-1-0-3-5-6-5-3/1-|3-333-3-3-3-3-333-3-3-3-|-----------------------|



************************************

| h  Hammer-on
| p  Pull-off
| /  Slide up

************************************

            
            
Suggest correction
Creating personal tab
Creating personal tab
You can edit any tab online and save it as your Personal.

You can edit, replace or remove any tab part or add personal notes – all changes will be seen only by you.

Personal tabs can be accessed anytime from any device, even offline.
Learn more »
Give kudos to tab author, rate the tab!
1 2 3 4 5
comments
print report bad tab
guest
Wanna post a correction for this tab? Suggest correction