Oops, an error
Loading. Please wait.

Aurora - Transcend tab

47 views 1 this week
no commentswrite comment
1 2 3 4 5
3 more votes to show rating
add to favorites
×
Save as Personal and add changes to this tab that will be seen only by you. Learn more ›
×
You can save this tab as Personal to edit and correct it or add notes. All changes will be seen only by you. Learn more »
launch autoscroll
font size
0
reset
how to read this tab
guitar tuner
edit
Autoscroll
slow
fast
+/-
esc
set tempo
stop
-------------------------------------------------------------------------------
                             Transcend - Aurora
-------------------------------------------------------------------------------
Tabbed by: dsweatt251


Tuning: A# (A#,F,A#,D#,G,C,F) - 7 String Guitar

INTRO
e|---------------------------------------------------------------------------------------------|
B|---------------------------------------------------------------------------------------------|
G|---------------------------------------------------------------------------------------------|
D|-----------------------------------------5*----------7-4----------------------4---------12---| X 2
A|12------------------------------6p5\3/5---------6---5---6\4/6-0-0-0-0-0000-------------------|
E|--13-12~-0--10-12-13~-0-0-0-0-0--------00--0-0-0-0-4----------1-1-1-1-1111-11---0-1-0-10-----|
                        *       *        **  *   *   **         * * * * **** **   *                      


VERSE 1
e|---------------------------------------------------------------------------|
B|---------------------------------------------------------------------------|
G|---------------------------------------------------------------------------|
D|---------------------------------------------------------------------------|
A|---------------------------------------------------------------------------|
E|-0000-0-000-00-0-0-00000-00-00-00000-00-0-00-0-0-0000-00000000000----------|
   **** * *** ** * * ***** ** ** ***** ** * ** * * **** ***********
e|---------------------------------------------------------------------------|
B|--------------------------4------------------------------------------------|
G|---------------0----------7------------------------------------------------|
D|--------0-----4------------------5*---------4-1-----1-0--------------------|
A|-------6---------------------------5*-------4-1-----1-0--------------------|
E|-000-0----000----0-0-0000---0-0-0-----000-0-4-1-000-1-0-0-000-0------------|
   *** *    ***    * * ****   *   *     *** *     ***     * *** *


VERSE 2
e|-------------------------------------------------------------------------------------|
B|-------------------------------------------------------------------------------------|
G|-------------------------------------------------------------------------------------|
D|-------------------------------------------------------------------------------------| 1st & 3rd TIME
A|-----------12-----------------12-------------------12-----------10--------5----------|
E|-12-0-12-0----13-12-0--0-12-0----13-12-0-12-0-12-0----13-12-0-8----8-0-5-0--7--------|

e|-------------------------------------------------------------------------------------|
B|-------------------------------------------------------------------------------------|
G|-------------------------------------------------------------------------------------| 2nd TIME
D|-------------------------------------------------------------------------------------|
A|-----------12-----------------12-------------------12------------15-----------17-----|
E|-12-0-12-0----13-12-0--0-12-0----13-12-0-12-0-12-0----13-12-0-12----13-0-12-0----15--|


BRIDGE INTO CHORUS
e|-------------------------------------------|
B|-------------------------------------------|
G|--------------0----------------------------| 
D|--------------4----------------------------|
A|-00-00-0-00-0---0000----3-------5----------|
E|-11-11-1-11-1---1111-11---0-1-0---1--------|
   ** ** * ** *   **** **   *         


CHORUS RHYTHM GUITAR
e|---------------------------------------------------------------------------|
B|---------------------------------------------------------------------------|
G|---------------------------------------------------------------------------|
D|---------------------------------------------------------------------------|
A|-111-1-111-1-11-1-33333-33-33-333555-5-555-5-55-5-88888-88-88-888----------|
E|-111-1-111-1-11-1-33333-33-33-333555-5-555-5-55-5-88888-88-88-888----------|
   *** * *** * ** * ***** ** ** ****** * *** * ** * ***** ** ** ***

e|---------------------------------------------------------------------------|
B|---------------------------------------------------------------------------|
G|---------------------------------------------------------------------------|
D|--------------------------------------------------------------------0~-----|
A|--------------------------------------------------------------------0~-----|
E|-111-1-111-1-11-1-33333-33-33-333555-5-555-5-55-5-33333-33-33-111---0~-----|
  

BREAKDOWN                                                                                     Scrape
e|-----------------------------------------------------------------------------------------------3---------|
B|-----------------------------------------------------------------------------------------------3---------|
G|-------------------------------------------------------0~--------------------------------------3---------|
D|-----------------------1-----------------------------4~----------------------------------------3---------|
A|-000-0-000-0-000-00000-1-000-000-000-000-000-000-000-----6~-00000-0-0---0-0-0-0-00-0-00-0-0000---000-0---|
E|-111-1-111-1-111-11111-1-000-000-000-000-000-000-000--------11111-1-1---1-1-1-1-11-1-11-1-1111---111-1---|
   *** * *** * *** *****   *** *** *** *** *** *** ***        ***** * *   * * *   ** * ** * ****   *** *


2nd BREAKDOWN                                                                                    
e|---------------------------------------------------------------------------|
B|---------------------------------------------------------------------------|
G|---------------------------------------------------------------------------| X 2 ("x" = palm muted further 
D|---------------------------------------------------------------------------|            away from bridge)
A|-000-0-00-0-0-00000-00-0-0-00-0-00-----------0-0-00-00-00-00-0000-0-000----|
E|-000-0-00-0-0-00000-00-0-0-00-0-00-1b0-0-1b0-0-0-00-00-00-00-0000-0-000----|
   *** * ** * * ****x xx x x xx x xx     *     * * ** ** ** xx xxxx x xxx 


INTRO RIFF 
e|---------------------------------------------------------------------------------------------|
B|---------------------------------------------------------------------------------------------|
G|---------------------------------------------------------------------------------------------|
D|-----------------------------------------5*----------7-4----------------------4---------12---| X 2
A|12------------------------------6p5\3/5---------6---5---6\4/6-0-0-0-0-0000-------------------|
E|--13-12~-0--10-12-13~-0-0-0-0-0--------00--0-0-0-0-4----------1-1-1-1-1111-11---0-1-0-10-----|
                        *       *        **  *   *   **         * * * * **** **   * 


 PRE CHORUS (7TH STRING IS USED IN THIS RIFF)
e|--------------------------------------------------------8/10----|
e|----------------------------------------------------8\6------8--|
B|-----------------------------------------------8/10-------------|
G|---------------------------------------------7------------------|
D|----------------------------------------------------------------| 
A|---------------------------12-----------------------------------|
E|-12P0-0-0-0-0-0-10P0-12-13----13-12P0-0-0-00--------------------|
        *   *   *      *  *             *   **                             
e|----------------------------------------------------------------|
e|----------------------------------------------------------------|
B|----------------------------------------------------------------|
G|----------------------------------------------------------------|
D|----------------------------------------------------------------| 
A|--------------12-------10---------------------------------------|
E|-12P0-0-0-0-0----13-12----13-12-13--5-5-5-5-55-8-8-8-8-88-------|
        *   *      *  *     *   *  *  *   *      *   *


CHORUS RHYTHM GUITAR
e|-------------------------------------------------------------------------|
B|-------------------------------------------------------------------------|
G|-------------------------------------------------------------------------|
D|-------------------------------------------------------------------------|
A|-111-1-111-1-11-1-33333-33-33-333555-5-555-5-55-5-88888-88-88-888--------|
E|-111-1-111-1-11-1-33333-33-33-333555-5-555-5-55-5-88888-88-88-888--------|
   *** * *** * ** * ***** ** ** ****** * *** * ** * ***** ** ** ***

e|-------------------------------------------------------------------------|
B|-------------------------------------------------------------------------|
G|-------------------------------------------------------------------------|
D|-------------------------------------------------------------------------|
A|-------------------------------------------------------------------------|
E|-111-1-111-1-11-1-33333-33-33-333555-5-555-5-55-5-33333-33-33-111--------|



BRIDGE TO OUTRO
e|--------------------------------------|
B|--------------------------------------|
G|--------------------------------------|
D|--------------------------------------|
A|--------------------------------------|
E|-0-0-0-0-1P0-00-1/UP-NECK-------------|
     *   *     **

OUTRO BREAKDOWN
e|------------------------------------------------------------|
B|------------------------------------------------------------|
G|-------------------------------------------------------0~---|
D|-----------------------1-----------------------------4~-----|
A|-000-0-000-0-000-00000-1-000-000-000-000-000-000-000-----6--|
E|-111-1-111-1-111-11111-1-000-000-000-000-000-000-000--------|
   *** * *** * *** *****   *** *** *** *** *** *** ***        


************************************

| /   slide up
| \   slide down
| h   hammer-on
| p   pull-off
| ~   vibrato
| *   harmonic
| *   PALM MUTE IF BELOW NUMBER
| x   PALM MUTED FURTHER AWAY FROM BRIDGE
| b   Bend
| pb  Pre-bend
| br  Bend release
| pbr Pre-bend release
| brb Bend release bend

************************************

            
            
Suggest correction
Creating personal tab
Creating personal tab
You can edit any tab online and save it as your Personal.

You can edit, replace or remove any tab part or add personal notes – all changes will be seen only by you.

Personal tabs can be accessed anytime from any device, even offline.
Learn more »
Give kudos to tab author, rate the tab!
1 2 3 4 5
comments
print report bad tab
guest
You may want to rate the tab now too:
select rating
Wanna post a correction for this tab? Suggest correction