Oops, an error
Loading. Please wait.

Blacktop Manhattan - Hollywise tab

version 2
version 2

Whole song

Interactive

8,144 views 3 this week
no commentswrite comment
1 2 3 4 5
x 6
add to favorites
×
Save as Personal and add changes to this tab that will be seen only by you. Learn more ›
×
You can save this tab as Personal to edit and correct it or add notes. All changes will be seen only by you. Learn more »
launch autoscroll
font size
0
reset
how to read this tab
guitar tuner
edit
Autoscroll
slow
fast
+/-
esc
set tempo
stop
Author
Title:	Hollywise
Artist:	Blacktop Manhattan

This is my tab for this song, not 100% perfect,
but sounds ok. I finally finished updating it so it looks clean.

sPlease send your comments on this tab to:
vertaxc4@yahoo.com.

Hope you like it.

====================<:: Intro ::>====================

Guitar 1
E------------|------------|
B------------|------------|
G------------|------------|
D------------|------------|
A--1/-----4--|--4----3-3\-|
E------------|------------|

E------------|------------|
B------------|------------|
G------------|------------|x3
D------------|--3----1-1--|
A--1/-----4--|------------|
E------------|------------|

Guitar 2

E------------|------------|
B------------|------------|
G------------|------------|x4
D------------|------------|
A--1/-----4--|--4----3-3\-|
E------------|------------|


Guitar 1

---------------------------|-------------------------|		|
---------------------------|-------------------------|		|
--3--3--3--3--3--3--3s--6--|----6--6--6--6--6--6--6--|		|\
---------------------------|-------------------------|		| \
--1--1--1--1--1--1--1s--4--|----4--4--4--4--4--4--4--|		|  \
---------------------------|-------------------------|		|   \
								|    > 2x
----------------------------------|--------------------------|	|   /
----------------------------------|--------------------------|	|  /
--10--10--10--10--10--10--10s--8--|----8--8--8--8--8--8s--3--|	| /
----------------------------------|--------------------------|	|/
---8---8---8---8---8---8---8s--6--|----6--6--6--6--6--6s--1--|	|
----------------------------------|--------------------------|	|

Guitar 2
   
--------------------------|--------------------------|		|
--------------------------|--------------------------|		|
--3--3--3--3--3--3--3--3--|--------------------------|		|\
--3--3--3--3--3--3--3--3--|--4--4--4--4--4--4--4--4--|		| \
--1--1--1--1--1--1--1--1--|--4--4--4--4--4--4--4--4--|		|  \
--------------------------|--2--2--2--2--2--2--2--2--|		|   \
								|    > 2x
----------------------------------|--------------------------|	|   /
----------------------------------|--------------------------|	|  /
----------------------------------|--------------------------|	| /
--11--11--11--11--11--11--11--11--|--6--6--6--6--6--6--6--6--|	|/
--11--11--11--11--11--11--11--11--|--6--6--6--6--6--6--6--6--|	|
---9---9---9---9---9---9---9---9--|--4--4--4--4--4--4--4--4--|	|


====================<:: Verse ::>====================

Guitar 1 & 2 Palm Mute
   
--------------------------|--------------------------|		|
--------------------------|--------------------------|		|
--------------------------|--------------------------|		|\
--3--3--3--3--3--3--3--3--|--------------------------|		| \
--1--1--1--1--1--1--1--1--|--4--4--4--4--4--4--4--4--|		|  \
--------------------------|--2--2--2--2--2--2--2--2--|		|   \
								|    > 4x
----------------------------------|--------------------------|	|   /
----------------------------------|--------------------------|	|  /
----------------------------------|--------------------------|	| /
----------------------------------|--------------------------|	|/
--11--11--11--11--11--11--11--11--|--6--6--6--6--6--6--6--6--|	|
---9---9---9---9---9---9---9---9--|--4--4--4--4--4--4--4--4--|	|


====================<:: Chorus ::>====================

Guitar 1

---------------------------|-------------------------|		|
---------------------------|-------------------------|		|
--3--3--3--3--3--3--3s--6--|----6--6--6--6--6--6--6--|		|\
---------------------------|-------------------------|		| \
--1--1--1--1--1--1--1s--4--|----4--4--4--4--4--4--4--|		|  \
---------------------------|-------------------------|		|   \
								|    > 2x
----------------------------------|--------------------------|	|   /
----------------------------------|--------------------------|	|  /
--10--10--10--10--10--10--10s--8--|----8--8--8--8--8--8s--3--|	| /
----------------------------------|--------------------------|	|/
---8---8---8---8---8---8---8s--6--|----6--6--6--6--6--6s--1--|	|
----------------------------------|--------------------------|	|

Guitar 2
   
--------------------------|--------------------------|		|
--------------------------|--------------------------|		|
--3--3--3--3--3--3--3--3--|--------------------------|		|\
--3--3--3--3--3--3--3--3--|--4--4--4--4--4--4--4--4--|		| \
--1--1--1--1--1--1--1--1--|--4--4--4--4--4--4--4--4--|		|  \
--------------------------|--2--2--2--2--2--2--2--2--|		|   \
								|    > 2x
----------------------------------|--------------------------|	|   /
----------------------------------|--------------------------|	|  /
----------------------------------|--------------------------|	| /
--11--11--11--11--11--11--11--11--|--6--6--6--6--6--6--6--6--|	|/
--11--11--11--11--11--11--11--11--|--6--6--6--6--6--6--6--6--|	|
---9---9---9---9---9---9---9---9--|--4--4--4--4--4--4--4--4--|	|

====================<:: Interlude ::>====================

Guitar 1

---------------------------|-------------------------|		|
---------------------------|-------------------------|		|
--3--3--3--3--3--3--3s--6--|----6--6--6--6--6--6--6--|		|\
---------------------------|-------------------------|		| \
--1--1--1--1--1--1--1s--4--|----4--4--4--4--4--4--4--|		|  \
---------------------------|-------------------------|		|   \
								|    > 2x
----------------------------------|--------------------------|	|   /
----------------------------------|--------------------------|	|  /
--10--10--10--10--10--10--10s--8--|----8--8--8--8--8--8s--3--|	| /
----------------------------------|--------------------------|	|/
---8---8---8---8---8---8---8s--6--|----6--6--6--6--6--6s--1--|	|
----------------------------------|--------------------------|	|

Guitar 2
   
--------------------------|--------------------------|		|
--------------------------|--------------------------|		|
--3--3--3--3--3--3--3--3--|--------------------------|		|\
--3--3--3--3--3--3--3--3--|--4--4--4--4--4--4--4--4--|		| \
--1--1--1--1--1--1--1--1--|--4--4--4--4--4--4--4--4--|		|  \
--------------------------|--2--2--2--2--2--2--2--2--|		|   \
								|    > 2x
----------------------------------|--------------------------|	|   /
----------------------------------|--------------------------|	|  /
----------------------------------|--------------------------|	| /
--11--11--11--11--11--11--11--11--|--6--6--6--6--6--6--6--6--|	|/
--11--11--11--11--11--11--11--11--|--6--6--6--6--6--6--6--6--|	|
---9---9---9---9---9---9---9---9--|--4--4--4--4--4--4--4--4--|	|

====================<:: Repeat Chorus ::>====================

====================<:: Repeat Interlude ::>====================

====================<:: Ad-Lib ::>====================

Guitar 1
E------------|------------|
B------------|------------|
G------------|------------|
D------------|------------|
A--1/-----4--|--4----3-3\-|
E------------|------------|

E------------|------------|
B------------|------------|
G------------|------------|
D------------|--3-/8-8-8--|
A--1/-----4--|------------|
E------------|------------|

Guitar 2
E------------|------------|
B------------|------------|
G------------|------------|x2
D------------|------------|
A--1/-----4--|--4----3-3\-|
E------------|------------|

====================<:: Solo ::>====================

Guitar 1
-------------------------16--------------------------|
--/11-/13-/14-/16--16-18----18-16-14--/18---18--18---|
-----------------------------------------------------|
-----------------------------------------------------|
-----------------------------------------------------|
-----------------------------------------------------|

-----------------------------------------------------|
--18 18-16-14-11------11-13-14------11-13-14---------|
-----------------------------------------------------|
-----------------------------------------------------|
-----------------------------------------------------|
-----------------------------------------------------|

------------------------------13---16---13--16-------|
--14---13---14--16---14---16-------------------------|
-----------------------------------------------------|
-----------------------------------------------------|
-----------------------------------------------------|
-----------------------------------------------------|

Guitar 2
E------------|------------|
B------------|------------|
G------------|------------|x2
D------------|------------|
A--1/-----4--|--4----3-3\-|
E------------|------------|

====================<:: Repeat Chorus 2x ::>====================


Tablature Legend
----------------
h - hammer on
p - pull off
b - bend
br - bendRelease
pb - preBend
pbr - preBendRelease
brb - bendReleaseBend
/ -  slide into from below or out of upwards
\ -  slide into from above or out of downwards
~ - vibrato
T - tapping
S - slap
P - pop
< - fade in
^ - brush up
v - brush down

            
            
Suggest correction
Creating personal tab
Creating personal tab
You can edit any tab online and save it as your Personal.

You can edit, replace or remove any tab part or add personal notes – all changes will be seen only by you.

Personal tabs can be accessed anytime from any device, even offline.
Learn more »
comments
print report bad tab
guest
You may want to rate the tab now too:
select rating
Wanna post a correction for this tab? Suggest correction