Oops, an error
Loading. Please wait.

Ccc Youth - No Longer I bass

275 views 1 this week
1 commentread comment
1 2 3 4 5
2 more votes to show rating
add to favorites
×
Save as Personal and add changes to this tab that will be seen only by you. Learn more ›
×
You can save this tab as Personal to edit and correct it or add notes. All changes will be seen only by you. Learn more »
launch autoscroll
font size
0
reset
guitar tuner
edit
Autoscroll
slow
fast
+/-
esc
set tempo
stop
Difficulty
                                 into
         part1                                       part2
G---------444-66--------444-66-          G---------------------------|
D--666-22--------666-22--------          D---------------------------|
A------------------------------          A--------222-44------222-44-|
E------------------------------          E-444-00-------444-00-------|

                                verse
G----------------------------------------------------------------------|
D----------------------------------------------------------------------|
A--------222-44--------222-44--------222-44--------222-44--------------|
E-444-00--------444-00--------444-00--------444-00---------------------|

                             pre chorus
G----------------------------------------------------------------------|
D----------------------------------------------------------------------|
A--12-12-12-12-12-12-12-12-12-12//-------------------------------------|
E----------------------------------------------------------------------|

                               chorus
G-----------------------------------------------------------------------|
D-----------------------------------------------------------------------|
A-22222222-44444444------------------22222222-44444444------------------|
E-------------------0000000000000000-------------------0000000000000000-|

                               into part2
                                 verse
                               pre chorus
                               chorus x2

                              interlude
G-----------------------------------------------------------------------|
D-----------------------------------------------------------------------|
A--------222-44--------222-44-------22-44-------22-44-------------------|
E-444-00--------444-00--------4///0-------4///0-------------------------|

  (listen for timing)        bridge1 (11s not 1s)
G---------------------------------------------------8~~~----9~~~---------|
D------------11~--------9~-----------------------11~------7~-------------|
A----------9~---9~~~-7~---7~~~-7~~~~~~~--------9~-------7~--------7~~~~~-|
E-7~~~~~~~-----------------------------7~~~~~~~--------------------------|

                               bridge2
G-----------------------------------------------------------------------|
D-----------------------------------------------------------------------|
A------------------------------------------------------0000000000000000-|
E-44444444-22222222-0000000000000000-44444444-22222222------------------|

                                ending
G-----------------------------------------------------------------------|
D-----------------------------------------------------------------------|
A--22222222-44444444-7777777777777777-22222222-44444444-----------------|
E-------------------------------------------------------0~~~~~~~~~~~~---|

            
            
Suggest correction
Creating personal tab
Creating personal tab
You can edit any tab online and save it as your Personal.

You can edit, replace or remove any tab part or add personal notes – all changes will be seen only by you.

Personal tabs can be accessed anytime from any device, even offline.
Learn more »
Give kudos to tab author, rate the tab!
1 2 3 4 5
comments
print report bad tab
1 comment total.
0 reply
lozzanator 10 Sep 15, 2008 05:39 PM

bridge2
G-----------------------------------------------------------------
D-----------------------------------------------------------------
A-----------------------------------------------------------------
E-4444444444444444-2222222222222222-000000000000000000000000000000

G-----------------------------------------------------------------
D-----------------------------------------------------------------
A-----------------------------------000000000000000000000000000000
E-4444444444444444-2222222222222222-------------------------------

guest
Wanna post a correction for this tab? Suggest correction