Oops, an error
Loading. Please wait.

Christian Thomas Sutter - Pink Halfpipe Acoustic tab

112 views 1 this week
no commentswrite comment
1 2 3 4 5
3 more votes to show rating
add to favorites
×
Save as Personal and add changes to this tab that will be seen only by you. Learn more ›
×
You can save this tab as Personal to edit and correct it or add notes. All changes will be seen only by you. Learn more »
launch autoscroll
font size
0
reset
how to read this tab
guitar tuner
edit
Autoscroll
slow
fast
+/-
esc
set tempo
stop
Author
Difficulty
Pink Halfpipe 

Tempo : 132 bpm

Lyrics : Christian Thomas Sutter

Guitar Tab : Christian Thomas Sutter 

Pink Halfpipe written while live streaming on YouNow by Christian Thomas Sutter 
(www.younow.com/ChristianSutter)


Verse 1 guitar ( upstrokes - ska-like ) 

   A                                Dm                        
e|-5---5---5---5---5---5---5---5---|---------------------------------|
B|-5---5---5---5---5---5---5---5---|-6---6---6---6---6---6---6---6---|
G|-6---6---6---6---6---6---6---6---|-7---7---7---7---7---7---7---7---|
D|-7---7---7---7---7---7---7---7---|-7---7---7---7---7---7---7---7---|
A|---------------------------------|-5---5---5---5---5---5---5---5---|
E|---------------------------------|---------------------------------|
   P.M...............................................................|

Verse 1

Pink Half Pipe. Became Romeo and Julia. Star crossed skaters. Park, Speed, Street, Long board sessions.
It’s the story of a skate pilgrimage. Rise up and skate for El Capetaine. 
From Thousands of miles away you can show your support. Its simple as a power slide on your first board.
It's time for all the skaters to unite for a good cause.



Chorus Guitar

   F5                 G5                 A5                 A5

e|-x-x-x-x-x-x-x-x-|-x-x-x-x-x-x-x-x-|-x-x-x-x-x-x-x-x-|-x-x-x-x-x-x-x-x-|
B|-x-x-x-x-x-x-x-x-|-x-x-x-x-x-x-x-x-|-x-x-x-x-x-x-x-x-|-x-x-x-x-x-x-x-x-|
G|-x-x-x-x-x-x-x-x-|-x-x-x-x-x-x-x-x-|-x-x-x-x-x-x-x-x-|-x-x-x-x-x-x-x-x-|
D|-3-3-3-3-3-3-3-3-|-5-5-5-5-5-5-5-5-|-7-7-7-7-7-7-7-7-|-7-7-7-7-7-7-7-7-|
A|-3-3-3-3-3-3-3-3-|-5-5-5-5-5-5-5-5-|-7-7-7-7-7-7-7-7-|-7-7-7-7-7-7-7-7-|
E|-1-1-1-1-1-1-1-1-|-3-3-3-3-3-3-3-3-|-5-5-5-5-5-5-5-5-|-5-5-5-5-5-5-5-5-|

Chorus

Skaters Unite.
Rise up become the crowd.
The Skate Down of our Times is coming. 
Skaters Unite.



Verse 2 Guitar

   A                                          Dm

   A                                Dm                        
e|-5---5---5---5---5---5---5---5---|---------------------------------|
B|-5---5---5---5---5---5---5---5---|-6---6---6---6---6---6---6---6---|
G|-6---6---6---6---6---6---6---6---|-7---7---7---7---7---7---7---7---|
D|-7---7---7---7---7---7---7---7---|-7---7---7---7---7---7---7---7---|
A|---------------------------------|-5---5---5---5---5---5---5---5---|
E|---------------------------------|---------------------------------|
   P.M...............................................................|

Verse 2

When the songs gets stuck in your head. Like the ultimate skate session.
Follow your hearts. There is no envious moon. Just the heart of a skater in tune.
Anything to come I’ll endure it with you and take to your defense 
Just like any good skater would do. We can skate through this.




Chorus Guitar

   F5                 G5                 A5                 A5

e|-x-x-x-x-x-x-x-x-|-x-x-x-x-x-x-x-x-|-x-x-x-x-x-x-x-x-|-x-x-x-x-x-x-x-x-|
B|-x-x-x-x-x-x-x-x-|-x-x-x-x-x-x-x-x-|-x-x-x-x-x-x-x-x-|-x-x-x-x-x-x-x-x-|
G|-x-x-x-x-x-x-x-x-|-x-x-x-x-x-x-x-x-|-x-x-x-x-x-x-x-x-|-x-x-x-x-x-x-x-x-|
D|-3-3-3-3-3-3-3-3-|-5-5-5-5-5-5-5-5-|-7-7-7-7-7-7-7-7-|-7-7-7-7-7-7-7-7-|
A|-3-3-3-3-3-3-3-3-|-5-5-5-5-5-5-5-5-|-7-7-7-7-7-7-7-7-|-7-7-7-7-7-7-7-7-|
E|-1-1-1-1-1-1-1-1-|-3-3-3-3-3-3-3-3-|-5-5-5-5-5-5-5-5-|-5-5-5-5-5-5-5-5-|

Chorus 

Skaters Unite.
Rise up become the crowd.
The Skate Down of our Times is coming. 
Skaters Unite.




Bridge Guitar

   C5                G5                  A5                F5

e|-x-x-x-x-x-x-x-x-|-x-x-x-x-x-x-x-x-x-|-x-x-x-x-x-x-x-x-|-x-x-x-x-x-x-x-x-x-|
B|-x-x-x-x-x-x-x-x-|-x-x-x-x-x-x-x-x-x-|-x-x-x-x-x-x-x-x-|-x-x-x-x-x-x-x-x-x-|
G|-5-5-5-5-5-5-5-5-|-x-x-x-x-x-x-x-x-x-|-x-x-x-x-x-x-x-x-|-x-x-x-x-x-x-x-x-x-|
D|-5-5-5-5-5-5-5-5-|-5-5-5-5-5-5-5-5-5-|-7-7-7-7-7-7-7-7-|-3-3-3-3-3-3-3-3-3-|
A|-3-3-3-3-3-3-3-3-|-5-5-5-5-5-5-5-5-5-|-7-7-7-7-7-7-7-7-|-3-3-3-3-3-3-3-3-3-|
E|-x-x-x-x-x-x-x-x-|-3-3-3-3-3-3-3-3-3-|-5-5-5-5-5-5-5-5-|-1-1-1-1-1-1-1-1-1-|

Bridge

The boss of the moon El Patrone Del Lunar
With the King of the Night. And, the King of the basketball ball court. 
El Capetaine in France. In English Capetaine stands for commander. 
Rise up. Good team. All hands up! Skaters Unite!



Chorus

   F5                 G5                 A5                 A5

e|-x-x-x-x-x-x-x-x-|-x-x-x-x-x-x-x-x-|-x-x-x-x-x-x-x-x-|-x-x-x-x-x-x-x-x-|
B|-x-x-x-x-x-x-x-x-|-x-x-x-x-x-x-x-x-|-x-x-x-x-x-x-x-x-|-x-x-x-x-x-x-x-x-|
G|-x-x-x-x-x-x-x-x-|-x-x-x-x-x-x-x-x-|-x-x-x-x-x-x-x-x-|-x-x-x-x-x-x-x-x-|
D|-3-3-3-3-3-3-3-3-|-5-5-5-5-5-5-5-5-|-7-7-7-7-7-7-7-7-|-7-7-7-7-7-7-7-7-|
A|-3-3-3-3-3-3-3-3-|-5-5-5-5-5-5-5-5-|-7-7-7-7-7-7-7-7-|-7-7-7-7-7-7-7-7-|
E|-1-1-1-1-1-1-1-1-|-3-3-3-3-3-3-3-3-|-5-5-5-5-5-5-5-5-|-5-5-5-5-5-5-5-5-|


Skaters Unite.
Rise up become the crowd.
The Skate Down of our Times is coming. 
Skaters Unite.







PINK HALFPIPE LYRICS


Lyrics 


Verse 1

A                                       Dm

Pink Half Pipe. Became Romeo and Julia. Star crossed skaters. Park, Speed, Street, Long board sessions.
 
A                                                 Dm

It’s the story of a skate pilgrimage. Rise up and skate for El Capetaine. 

      A                                           Dm

From Thousands of miles away you can show your support. Its simple as a power slide on your first board.

A                                Dm

It's time for all the skaters to unite for a good cause.


Chorus

F5  G5  A5

Skaters Unite.

F5   G5            A5  

Rise up become the crowd.

F5  G5                A5

The Skate Down of our Times is coming. 

F5  G5  A5
    
Skaters Unite.

Verse 2

A                                                  Dm

When the songs gets stuck in your head. Like the ultimate skate session.

A                                                     Dm

Follow your heart. There is no envious moon. Just the heart of a skater sakteboard in tune.

A                                            Dm

Anything to come I’ll endure it with you and take to your defense 

A                                           Dm

Just like any good skater would do. We can skate through this.


Chorus


Skaters Unite.
Rise up become the crowd.
The Skate Down of our Times is coming. 
Skaters Unite.


Bridge

C5

The boss of the moon El Patrone Del Lunar
 
         G5                                                      A5
      
With the King of the Night. And, the King of the basketball ball court. 

                        F5

El Capetaine in France. In English Capetaine stands for commander. 

C5       G5         A5               F5

Rise up. Good team.    All hands up!    Skaters Unite!



Chorus

Skaters Unite.
Rise up become the crowd.
The Skate Down of our Times is coming. 
Skaters Unite.


Notes  

- Influencing the crowd to participate with a round of "Skaters United" in chant 
during the chorus may make for interesting times while entertaining the audience with this song.

- El Capetaine French Title Sutter Wappen 

************************************

| x   Dead note
| g   Grace note
| (n) Ghost note
| h   Hammer-on
| p   Pull-off
| r   Release
| >   Accented note
| t   Tapping
| b   Bend
| br  Bend release
| pb  Pre-bend
| pbr Pre-bend release
| /   Slide up
| \   Slide down
| ~   Vibrato
| s   Slap
| P   Pop
| PM  Palm mute
| TR  Trill
| N   Tremolo

************************************

            
            
Suggest correction
Creating personal tab
Creating personal tab
You can edit any tab online and save it as your Personal.

You can edit, replace or remove any tab part or add personal notes – all changes will be seen only by you.

Personal tabs can be accessed anytime from any device, even offline.
Learn more »
Give kudos to tab author, rate the tab!
1 2 3 4 5
comments
print report bad tab
guest
You may want to rate the tab now too:
select rating
Wanna post a correction for this tab? Suggest correction