Oops, an error
Loading. Please wait.

Closer 2 Closure - Let Love Bleed Red tab

11,267 views 9 this week
2 commentsread comments
1 2 3 4 5
x 7
add to favorites
×
Save as Personal and add changes to this tab that will be seen only by you. Learn more ›
×
You can save this tab as Personal to edit and correct it or add notes. All changes will be seen only by you. Learn more »
launch autoscroll
font size
0
reset
how to read this tab
guitar tuner
edit
Autoscroll
slow
fast
+/-
esc
set tempo
stop
Author
Difficulty
I know this isn't exactly how this song is played but it's the way I play it and I 
believe it's pretty close. I have not indicated the timing or strumming in this tab. This is 
just so people can see the chords played. Listen to the song to figure out the 
timing and strumming.

h   hammer-on
/   slide up
\   slide down

Song order
Intro x2
Verse
Chorus x2
Post Chorus
Verse
Chorus x2
Bridge
Chorus x2
Outro


Standard tuning. Capo 4th fret.

Intro

e|------10----------10----------10---------10----------10---------10-------|
B|----10--10------10--10------10--10-----10--10------10--10-----10--10-----|
G|---0------0----0------0----0------0---0------0----0------0---0------0----|
D|--0-----------0-----------0----------0-----------0----------0------------|
A|10----------10-----------9----------9-----------7----------7-------------|
E|-------------------------------------------------------------------------|

e|-----10---------10---|
B|---10--10-----10-----|
G|--0------0---0-------|
D|-0----------0--------|
A|---------------------|
E|7----------8---------|

Verse

e|-10------10-----10-----10----10----10----10----10-----10----10---10----10-|
B|-10------10-----10-----10----10----10----10----10-----10----10---10----10-|
G|-0-------0------0------0-----0-----0-----0-----0------0-----0----0-----0--|
D|-0-------0------0------0-----0-----0-----0-----0------0-----0----0-----0--|
A|-10------9------7------------------------------7-----------------------9--|
E|-----------------------10----7-----8-----10-----------7-----8----10-------|

e|-10-----10----10-----10-----10----10----10----10----10----10----10-----10-|
B|-10-----10----10-----10-----10----10----10----10----10----10----10-----10-|
G|-0------0-----0------0------0-----0-----0-----0-----0-----0-----0------0--|
D|-0------0-----0------0------0-----0-----0-----0-----0-----0-----0------0--|
A|-10-----9-----7-------------------------------7------------------------9--|
E|-0------0-----0------10-----7-----8-----10----0-----7-----8-----10--------|

Chorus

e|-3----3/5\3--2h3---3----3/5\3--2/7----3--3--3----3--2h3-------------------|
B|-3----3/5\3--3-----3----3/5\3--3/8----3--3--3----3--3---------------------|
G|-0-----------------0------------------0--0--0----0--2---------------------|
D|--------------------------------------2--0--0----2--0---------------------|
A|-3-----------------3------------------2----------2--0---------------------|
E|--------------------------------------0--2--3----0------------------------|

Post Chorus

e|-3-3--3------2-2--2-----0-0--0-----2-2--2----3-3--3------2-2--2-----------|
B|-3--3--3-----3--3--3----3--3--3----3--3--3---3--3--3-----3--3--3----------|
G|-0---0--0----0---0--0---0---0--0---0---0--0--0---0--0----0---0--0---------|
D|--------------------------------------------------------------------------|
A|-3-----------3----------3----------3---------3-----------3----------------|
E|--------------------------------------------------------------------------|

e|-0-0--0----2--------|
B|-3--3--3---3--------|
G|-0---0--0--0--------|
D|--------------------|
A|-3---------3--------|
E|--------------------|

Bridge

Repeat x3
e|-3---2---0---2---3---2---0---2----3-----3---3-----3-----------------------|
B|-3---3---3---3---3---3---3---3----0-----0---0-----0-----------------------|
G|-0---0---0---0---0---0---0---0----0h2---0---0h2---0-----------------------|
D|----------------------------------0-----0---0-----0-----------------------|
A|-3---3---3---3---3---3---3---3----2-----2---2-----2-----------------------|
E|--------------------------------------------------------------------------|

Then
e|-3---2---0---2---3---2---0---2---3-----3---3------------------------------|
B|-3---3---3---3---3---3---3---3---0-----0---3------------------------------|
G|-0---0---0---0---0---0---0---0---0h2---0---2------------------------------|
D|---------------------------------0-----0---0------------------------------|
A|-3---3---3---3---3---3---3---3---2-----2----------------------------------|
E|-------------------------------------------2------------------------------|

Outro

e|-3-3--3------2-2--2-----0-0--0-----2-2--2----3-3--3------2-2--2-----------|
B|-3--3--3-----3--3--3----3--3--3----3--3--3---3--3--3-----3--3--3----------|
G|-0---0--0----0---0--0---0---0--0---0---0--0--0---0--0----0---0--0---------|
D|--------------------------------------------------------------------------|
A|-3-----------3----------3----------3---------3-----------3----------------|
E|--------------------------------------------------------------------------|

e|-0-0--0----2-2--2----3-|
B|-3--3--3---3--3--3---3-|
G|-0---0--0--0---0--0--0-|
D|-----------------------|
A|-3---------3---------3-|
E|-----------------------|

            
            
Suggest correction
Creating personal tab
Creating personal tab
You can edit any tab online and save it as your Personal.

You can edit, replace or remove any tab part or add personal notes – all changes will be seen only by you.

Personal tabs can be accessed anytime from any device, even offline.
Learn more »
comments
print report bad tab
2 comments total.
0 reply
CR!$+@ 63 Apr 20, 2012 07:02 AM

this is perfect ^o^ thank you so much!!!!!!

0 reply
DarkndsKY3 71 Apr 26, 2013 07:34 AM

itz perfect but it sounds like the intro needs to be on a high note's though

guest
You may want to rate the tab now too:
select rating
Wanna post a correction for this tab? Suggest correction