Oops, an error
Loading. Please wait.

Common Man - In Memory intro tab

355 views 1 this week
1 commentread comment
1 2 3 4 5
2 more votes to show rating
add to favorites
×
Save as Personal and add changes to this tab that will be seen only by you. Learn more ›
×
You can save this tab as Personal to edit and correct it or add notes. All changes will be seen only by you. Learn more »
launch autoscroll
font size
0
reset
how to read this tab
guitar tuner
edit
Autoscroll
slow
fast
+/-
esc
set tempo
stop
Author
Title: In Memory
Band: Common Man
Tuning: Standard
Capo: fret #3

THIS IS IMPORTANT! The umbers on the tab are counting starting from the capo. Just in
anyone got confused. Anyway, I wrote this on a whim. I got bored, so I just started
and vuala! I finger picked this whole intro. And then the song gets into a rhythm. It’s 
work in progress, so bear with me. The rest of the song will come soon.

Tab Key
h - hammer on
p - pull off
b - bend string up
r - release bend
/ - slide up    \ - slide down
v - vibrato (sometimes written as ~)
t - right hand tap
x - play 'note' with heavy damping


[Intro]

E |-------------------------------------------------------|
B |-------0-1-----1-0-----0-1-----1-3-----3-1-----1-0-----|
G |-----2-----2-------2-------2-------2-------2-------2---|
D |---2---------2-------2-------2-------2-------2-------2-|
A |-0-------0-----0-0-----0-0-----0-0-----0-0-----0-0-----|
E |-------------------------------------------------------|


E |------------------------------------------------------|
B |-0h1-3-1-0-----0-1-----1-0-----0-0-----0--------------|
G |-----------2-------2-------2-------0-----2------------|
D |-------------2-------2-------2-------2----------------|
A |-0---0-0-0-----0-0-----0-0-----0-2-----2-0------------|
E |------------------------------------------------------|
[repeat intro once]

            
            
Suggest correction
Creating personal tab
Creating personal tab
You can edit any tab online and save it as your Personal.

You can edit, replace or remove any tab part or add personal notes – all changes will be seen only by you.

Personal tabs can be accessed anytime from any device, even offline.
Learn more »
Give kudos to tab author, rate the tab!
1 2 3 4 5
comments
print report bad tab
1 comment total.
0 reply
common_man_tk 10 Dec 15, 2008 06:52 AM

This intro is fricken awesome dude, only part I'm havin trouble with is:
E |------------------------|
B |-0-0-----0--------------|
G |-----0-----2------------|
D |-------2----------------|
A |-0-2-----2-0------------|
E |------------------------|
by the way, is this a constant beat, or are some notes sustained longer than others?

guest
You may want to rate the tab now too:
select rating
Wanna post a correction for this tab? Suggest correction