Oops, an error
Loading. Please wait.

Corporeal - All We Got bass

101 views 1 this week
no commentswrite comment
1 2 3 4 5
3 more votes to show rating
add to favorites
×
Save as Personal and add changes to this tab that will be seen only by you. Learn more ›
×
You can save this tab as Personal to edit and correct it or add notes. All changes will be seen only by you. Learn more »
launch autoscroll
font size
0
reset
guitar tuner
edit
Autoscroll
slow
fast
+/-
esc
set tempo
stop
Author
Difficulty
intermediate
                       Corporeal: All we Got
                       Tabbed by: Johannes Elton Hansen

This is the bassline tab to the song by the band Corporeal. The song
is called \\\"All we got\\\", as they are only playing on one guitar :P check
out yourself at:

http://www.youtube.com/watch?v=lrpwDvuNWro



IMPORTANT: Song is tuned down a ½ step, so the strings are (Eb, Ab, Db, Gb, Bb, eb).

Enjoy

Part A - 00:08 - 00:24

G |-----------------|-----------------|
D |-----------------|-----------------|
A |-----------------|-----------------|
E |-0-----7h12--7s5-|10--5--7h8-7-5---|

G |-----------------|-----------------|
D |-----------------|-----------------|
A |-----------------|-----------------|
E |-----------------|-----------------|


Part B - 00:24 - 00:54

G |-----------------|-----------------|-----------------|-----------------|
D |-----------------|-----------------|-----------------|-----------------|
A |-----------------|-----------------|-----------------|-----------------|
E |-0---------------|3----------------|5----------------|------------10h12|

G |-----------------|-----------------|-----------------|------------------------|
D |-----------------|-----------------|-----------------|------------------------|
A |-----------------|-----------------|-----------------|------------------------|
E |0----------------|8----------------|5----------------|3------------12\\\\-----|

G |-----------------|-----------------|-----------------|-----------------|
D |-----------------|-----------------|-----------------|-----------------|
A |-----------------|-----------------|-----------------|-----------------|
E |0----------------|5----------------|3----------------|8-----------10h12|

G |-----------------|-----------------|-----------------|-----------------|
D |-----------------|-----------------|-----------------|-----------------|
A |-----------------|-----------------|-----------------|-----------------|
E |0----------------|3----------------|5----------------|8-----------10h12|

G |-----------------|
D |-----------------|
A |-----------------|
E |0----------------|


00:54 - 01:01
(you could call it a little break, with only the drums continuing, and guitar playing
rhythm aswell with muted notes and slide)

Part D - 01:01 - 01:38

This is the main riff

G |-----------------|-----------------|-----------------|------------------------|
D |-----------------|-----------------|-----------------|------------------------|
A |-----------------|-----------------|-----------------|------------------------|
E |0--7h-12--3s5h10-|0--7h-12--3s5-2--|0--7h-12--3s5h10-|0------------12\\\\-----|

Part E - 01:38 - 02:41

G |-----------------|-----------------|
D |-----------------|-----------------| Repeat many times
A |-----------------|-----------------|
E |0--7h-12--3s5h10-|0--7h-12--3s5-2--|

Part F - 02:41 - 02:49
(just a little alteration from part D before we go to the outro)

G |-----------------|-----------------|-----------------|-----------------|
D |-----------------|-----------------|-----------------|-----------------|
A |-----------------|-----------------|-----------------|-----------------|
E |0--7h-12--3s5h10-|0--7h-12--3s5-2--|0--7h-12--3s5h10-|0----------10h12-|

Part G - 02:41 - 03:08

G |-----------------|-----------------|
D |-----------------|-----------------|
A |-----------------|-----------------| Repeat 2 times. dont forget to shout
E |-7-8-7s5-7-5s3-5-|-3s2-3-2-0-------| \\\"Hey\\\" after each :)


G |-----------------|-----------------|-----------------|-----------------|
D |-----------------|-----------------|-----------------|-----------------|
A |-----------------|-----------------|-----------------|-----------------|
E |-7-8-7s5-7-5s3-5-|-3s2-3-2-0-2-3-2-|-7-8-7s5-7-5s3-5-|-3s2-3-2-0-10h12-|

END

Criticism is welcome, and if you got questions plz do ask :)

            
            
Suggest correction
Creating personal tab
Creating personal tab
You can edit any tab online and save it as your Personal.

You can edit, replace or remove any tab part or add personal notes – all changes will be seen only by you.

Personal tabs can be accessed anytime from any device, even offline.
Learn more »
Give kudos to tab author, rate the tab!
1 2 3 4 5
comments
print report bad tab
guest
You may want to rate the tab now too:
select rating
Wanna post a correction for this tab? Suggest correction